Oops, an error
Loading. Please wait.

Hilf Mir tab

version 2
version 2

Whole song

Interactive

11,633 views 1 this week
3 commentsread comments
1 2 3 4 5
x 14
add to favorites
×
Save as Personal and add changes to this tab that will be seen only by you. Learn more ›
×
You can save this tab as Personal to edit and correct it or add notes. All changes will be seen only by you. Learn more »
launch autoscroll
font size
0
reset
how to read this tab
guitar tuner
edit
Autoscroll
slow
fast
+/-
esc
set tempo
stop
----------------------------------------------------------------------------
                             Hilf mir - Rammstein
----------------------------------------------------------------------------
Tabbed by: Bee-Ay
Email: Leviathan_ben@hotmail.com

Tuning: C-G-C-F-A-D

This is a brilliant song from the new album Rosenrot.
Whatever you think about this tab, let it go. this is correct.

P.S Do not play this song alone! Muhaha! :P


Intro guitar:
D|-----------------------------------------------|
A|-----------------------------------------------|
F|-----------------------------------------------|
C|-----------------------------------------------| 
G|-----------------------------------------------|
C|16-16-16-16-16-16-16-16-16-16-16-16-16-16-16-16|


This one sounds cool, but you need long fingers. 
Also mute very slowly so you get the right sound:
D|-------------------------------|
A|-------------------------------|
F|-------------------------------|
C|4-4-4-4-4-4-4-4-4-4-4-4-4-4-4-4| 
G|9-9-9-9-9-9-9-9-9-9-9-9-9-9-9-9|
C|-------------------------------|


D|-----------------------------|-----------------------------|
A|-----------------------------|-----------------------------|
F|-----------------------------|-----------------------------|
C|4-4-4-4-7-7-----0-0-0-0-3-3-3|4-4-4-4-7-7-----7-7-7-7-6-6-6| 
G|4-4-4-4-4-4-----0-0-0-0-3-3-3|4-4-4-4-4-4-----5-5-5-5-4-4-4|
C|4-4-4-4-4-4-----0-0-0-0-3-3-3|4-4-4-4-4-4-----0-0-0-0-3-3-3|

D|---------------------|
A|---------------------|
F|---------------------|
C|-----<5>-------3--(4)| 
G|--<5>---<5>----3--(4)|
C|<5>-------<5>--3--(4)|
   | |  |  | |        
   | |  |  | |       A
Do the hormonics     |-------- Let this note ring totaly out.
like when you tune 
your guitar on these.



Paul:
D|-----------------------------------------------------------|
A|-----------------------------------------------------------|
F|-----------------------------------------------------------|
C|9-9-9-9-9-9-----2-2-2-2-2-2-2-0-0-0-0-0-0-----2-2-2-2-2-2-2| 
G|9-9-9-9-9-9-----2-2-2-2-2-2-2-0-0-0-0-0-0-----2-2-2-2-2-2-2|
C|9-9-9-9-9-9-----2-2-2-2-2-2-2-0-0-0-0-0-0-----2-2-2-2-2-2-2|
"Immer wenn ich einsam bin.."


Listen very, very, VERY carefully for this. Believe me, its true:
Richard:
D|--------------|-------------|-------------|------------------|
A|--------------|-------------|-------------|------------------|
F|*------7------|------6------|------4------|----------4------*|
C|*--4-------4--|--2-------2--|--0-------0--|------2-------2--*| 
G|--------------|-------------|-------------|--4/2-------------|
C|--------------|-------------|-------------|------------------|


Paul:
D|----------------------------------------------------------|
A|----------------------------------------------------------|
F|----------------------------------------------------------|
C|4-4-4-4-7-7-----4-4-4-4-7-7-----4-4-4-4-7-7----4-4-4-4-7-7| 
G|4-4-4-4-4-4-----4-4-4-4-4-4-----4-4-4-4-4-4----4-4-4-4-4-4|
C|4-4-4-4-4-4-----4-4-4-4-4-4-----4-4-4-4-4-4----4-4-4-4-4-4|
"Oh weh die Flamme fäßt das Kleid.."

Richard in back with:
D|------------|
A|------------|
F|------------| Repaet as needed.
C|4~~---------| 
G|---------3~~|
C|------------|

Just up to Chorus:
D|-------------------| 
A|-------------------| 
F|-------------------| 
C|-------------------| 
G|--2-2-2-2-2-2-2-2--| 
C|--2-2-2-2-2-2-2-2--| 
pm  . . . . . . . . 


Chorus:
D|------------------|
A|------------------|
F|------------------| 
C|4---/9-----0----11| 
G|4---/9-----0----11|
C|4---/9-----0----11|
"Hilf mir"



Ich bin verbrannt mit Haut und Haar
Verbrannt ist alles ganz und gar
Aus der Asche ganz allein
Steig ich auf zum Sonnenschein:

Paul:
D|-------------------------------|
A|-------------------------------|
F|-------------------------------| x3
C|4-4-4-4-4-4-4-4-4-4-4-4-4-3-3-3| 
G|4-4-4-4-4-4-4-4-4-4-4-4-4-3-3-3|
C|4-4-4-4-4-4-4-4-4-4-4-4-4-3-3-3|            


And after 3 times:
D|----------------------------------|
A|----------------------------------|
F|----------------------------------| 
C|4-4-4-4-4-4-4-4-0-0-0-0-0-11-11-11| 
G|4-4-4-4-4-4-4-4-0-0-0-0-0-11-11-11|
C|4-4-4-4-4-4-4-4-0-0-0-0-0-11-11-11|


Richard: Octave chords.
D|--------------------------------------------------------|
A|--------------------------------------------------------|
F|11-11-11-11-11-11-11-11-11-11-11-11-11-11-11-11-11-11-11| 
C|xxxxxxxxxxxxxxxxxxxxxxxxxxxxxxxxxxxxxxxxxxxxxxxxxxxxxxxx| x2 
G|9-9-9-9-9-9-9-9-9-9-9-9-9-9-9-9-9-9-9-9-9-9-9-9-9-9-9-9-|
C|--------------------------------------------------------|

After playing that it slides to this first chord:
D|----------------|
A|----------------|
F|4-4-4-4-4-------| 
C|xxxxxxxxx--7-7-7| 
G|2-2-2-2-2--4-4-4|
C|----------------|


End:
D|-----------------------------------------------------------|
A|-----------------------------------------------------------|
F|-----------------------------------------------------------| 
C|4-4-4-4-7-7-----4-4-4-4-7-7-----4-4-4-4-7-7-----4-4-4-4-7-7|
G|4-4-4-4-4-4-----4-4-4-4-4-4-----4-4-4-4-4-4-----4-4-4-4-4-4|
C|4-4-4-4-4-4-----4-4-4-4-4-4-----4-4-4-4-4-4-----4-4-4-4-4-4|
  Hiilf mir!      Hiilf mir!      Hiilf mir!      Hiilf mir!





            
            
Suggest correction
Creating personal tab
Creating personal tab
You can edit any tab online and save it as your Personal.

You can edit, replace or remove any tab part or add personal notes – all changes will be seen only by you.

Personal tabs can be accessed anytime from any device, even offline.
Learn more »
comments
print report bad tab
3 comments total.
0 reply
MotoGP 802 Jun 07, 2006 03:01 AM

Intro

D|---------------------------------------------------|
A|---------------------------------------------------|
F|---------------------------------------------------|
C|---------------------------------------------------|
G|---------------------------------------------------|
C|--16-16-16-16-16-16-16-16-16-16-16-16-16-16-16-16--|

First riff
Doubled with acoustic guitars

1st guitar
D|-------------------------------------|
A|-------------------------------------|
F|*-----------------------------------*|
C|*-4-4-4-4-7-7-------0-0-0-0-0-3-3-3-*|x3
G|--4-4-4-4-4-4-------0-0-0-0-0-3-3-3--|
C|--4-4-4-4-4-4-------0-0-0-0-0-3-3-3--|

D|---------------------------------------|
A|---------------------------------------|
F|---------------------------------------|
C|--4-4-4-4-7-7-----------5*----3-----4--|
G|--4-4-4-4-4-4---------5*--5*--3-----4--|
C|--4-4-4-4-4-4-------5*------5*3-----4--|

2nd guitar
D|-------------------------------------|
A|-------------------------------------|
F|-------------------------------------|
C|--4-4-4-4-7-7-------0-0-0-0-0-3-3-3--|
G|--4-4-4-4-4-4-------0-0-0-0-0-3-3-3--|
C|--4-4-4-4-4-4-------0-0-0-0-0-3-3-3--|

D|-------------------------------------|
A|-------------------------------------|
F|-------------------------------------|
C|--4-4-4-4-7-7-------7-7-7-7-7-6-6-6--|
G|--4-4-4-4-4-4-------5-5-5-5-5-4-4-4--|
C|--4-4-4-4-4-4------------------------|

D|-------------------------------------|
A|-------------------------------------|
F|-------------------------------------|
C|--4-4-4-4-7-7-------0-0-0-0-0-3-3-3--|
G|--4-4-4-4-4-4-------0-0-0-0-0-3-3-3--|
C|--4-4-4-4-4-4-------0-0-0-0-0-3-3-3--|

D|---------------------------------------|
A|---------------------------------------|
F|---------------------------------------|
C|--4-4-4-4-7-7-----------5*----3-----4--|
G|--4-4-4-4-4-4---------5*--5*--3-----4--|
C|--4-4-4-4-4-4-------5*------5*3-----4--|


"Pre-chorus"'
Rhythm guitar
D|--------------------------------------------------------------------------|
A|--------------------------------------------------------------------------|
F|*------------------------------------------------------------------------*|
C|*-9-9-9-9-9-9-------11-11-11-11-11-11-11-0-0-0-0-0-0-------2-2-2-2-2-2-2-*|x2
G|--9-9-9-9-9-9-------11-11-11-11-11-11-11-0-0-0-0-0-0-------2-2-2-2-2-2-2--|
C|--9-9-9-9-9-9-------11-11-11-11-11-11-11-0-0-0-0-0-0-------2-2-2-2-2-2-2--|

Solo guitar
Fast tremolo picking on these notes
D|--------------------------------------------------------------------------|
A|--------------------------------------------------------------------------|
F|*------------------------------------------------------------------------*|
C|*-------12----------------11-------------------9-------------------------*|x2
G|--9-----------9---7----------------7-----5-----------5---4-----2-----0----|
C|--------------------------------------------------------------------------|


Second riff
Doubled with acoustic guitars

D|-------------------------------------
A|-------------------------------------
F|-------------------------------------
C|--4-4-4-4-7-7-------0-0-0-0-0-3-3-3--
G|--4-4-4-4-4-4-------0-0-0-0-0-3-3-3--
C|--4-4-4-4-4-4-------0-0-0-0-0-3-3-3--

D|-------------------------------------|
A|-------------------------------------|
F|-------------------------------------|
C|--4-4-4-4-7-7-----------5*----3------|
G|--4-4-4-4-4-4---------5*--5*--3------|
C|--4-4-4-4-4-4-------5*------5*3------|


Third riff
Rhythm guitar
D|-------------------------------------|
A|-------------------------------------|
F|*-----------------------------------*|
C|*-4-4-4-4-7-7-----------------------*|x4
G|--4-4-4-4-4-4------------------------|
C|--4-4-4-4-4-4------------------------|

Solo guitar
D|-------------------------------------|
A|-------------------------------------|
F|*-11~-----------------------5~------*|
C|*--x------------------------x-------*|x4
G|---9~-----------------------3~-------|
C|-------------------------------------|


Bridge @ 2.35
D|-------------------|
A|-------------------|
F|-------------------|
C|-------------------|
G|--2-2-2-2-2-2-2-2--|
C|--2-2-2-2-2-2-2-2--|
pm . . . . . . . .


Chorus
D|------------------|
A|------------------|
F|*----------------*|
C|*-4--/9---0---11-*|
G|--4--/9---0---11--|
C|--4--/9---0---11--|


Fourth riff
Rhythm guitar
D|-----------------------------------|
A|-----------------------------------|
F|*---------------------------------*|
C|*-4-4-4-4-4-4-4-4-4-4-4-4-4-3-3-3-*|x3
G|--4-4-4-4-4-4-4-4-4-4-4-4-4-3-3-3--|
C|--4-4-4-4-4-4-4-4-4-4-4-4-4-3-3-3--|

D|--------------------------------------|
A|--------------------------------------|
F|--------------------------------------|
C|--4-4-4-4-4-4-4-4-0-0-0-0-0-11-11-11--|
G|--4-4-4-4-4-4-4-4-0-0-0-0-0-11-11-11--|
C|--4-4-4-4-4-4-4-4-0-0-0-0-0-11-11-11--|

Solo guitar (played 3 t

0 reply
MotoGP 802 Jun 07, 2006 03:02 AM

Solo guitar (played 3 times)
This part is overdubbed several times:
D|---------------------------------------------------|
A|---------------------------------------------------|
F|*-11-11-11-11-11-11-11-11-11-11-11-11-11-11-11-11-*|
C|*--x--x--x--x--x--x--x--x--x--x--x--x--x--x--x--x-*|x3
G|---9--9--9--9--9--9--9--9--9--9--9--9--9--9--9--9--|
C|---------------------------------------------------|

D|---------------------------------------------------|
A|---------------------------------------------------|
F|--11-11-11-11-11-11-11-11-11-11-11-11-11--9--9--9--|
C|---x--x--x--x--x--x--x--x--x--x--x--x--x--x--x--x--|
G|---9--9--9--9--9--9--9--9--9--9--9--9--9--7--7--7--|
C|---------------------------------------------------|

And:
D|---------------------------------------------------|
A|--14-14-14-14-14-14-14-14-14-14-14-14-14-14-14-14--|
F|*--x--x--x--x--x--x--x--x--x--x--x--x--x--x--x--x-*|
C|*-11-11-11-11-11-11-11-11-11-11-11-11-11-11-11-11-*|x3
G|---------------------------------------------------|
C|---------------------------------------------------|

D|---------------------------------------------------|
A|--14-14-14-14-14-14-14-14-12-12-12-12-12-10-10-10--|
F|---x--x--x--x--x--x--x--x--x--x--x--x--x--x--x--x--|
C|--11-11-11-11-11-11-11-11--9--9--9--9--9--7--7--7--|
G|---------------------------------------------------|
C|---------------------------------------------------|
End
D|-------------------------------------|
A|-------------------------------------|
F|*-----------------------------------*|
C|*-4-4-4-4-7-7-----------------------*|x4
G|--4-4-4-4-4-4------------------------|
C|--4-4-4-4-4-4------------------------|

0 reply
wikki 10 Jan 28, 2010 01:32 PM

This one sounds cool, but you need long fingers.
Also mute very slowly so you get the right sound:
D|-------------------------------|
A|-------------------------------|
F|-------------------------------|
C|4-4-4-4-4-4-4-4-4-4-4-4-4-4-4-4|
G|9-9-9-9-9-9-9-9-9-9-9-9-9-9-9-9|
C|-------------------------------|

come on...you need to have a HUGE hand to get this possible..

guest
You may want to rate the tab now too:
select rating
Wanna post a correction for this tab? Suggest correction