Oops, an error
Loading. Please wait.
We have an official Ich Tu Dir Weh tab made by UG professional guitarists. Check out the tab »
×

Ich Tu Dir Weh intro tab

1,709 views 6 this week
1 commentread comment
1 2 3 4 5
x 3
add to favorites
×
Save as Personal and add changes to this tab that will be seen only by you. Learn more ›
×
You can save this tab as Personal to edit and correct it or add notes. All changes will be seen only by you. Learn more »
launch autoscroll
font size
0
reset
how to read this tab
guitar tuner
backing track
0:00
0:00
edit
Autoscroll
slow
fast
+/-
esc
set tempo
stop
Ich Tu Dir Weh
Rammstein
Liebe Ist Für Alle Da
2009

Tabbed by: CruzRN

Tuning: Drop D (DADGBE)

Hello everyone.

I've been looking for the keys intro tab for this song on guitar.
Although I did my best to get it I couldn't find it anywhere. 
So I tabbed it myself to guitar, using the keys tab, for you guys.

E----------------------|--------------------|
B-----------4----------|-----------4--------|
G-----0--3-----3--0----|--------------------|
D--1-------------------|-----4--6-----6--4--|
A----------------------|--4-----------------|
D----------------------|--------------------|

E----------------------|--------------------|
B-----------3----------|-----------3--------|
G-----0--2-----2--0----|-----0--2-----2--0--|
D--0-------------------|--0-----------------|
A----------------------|--------------------|
D----------------------|--------------------|

E----------------------|--------------------|
B-----------4----------|-----------4--------|
G-----0--3-----3--0----|--------------------|
D--4-------------------|-----4--6-----6--4--|
A----------------------|--------------------|
D----------------------|--6-----------------|

E----------------------|--------------------|
B-----------3----------|-----------3--------|
G-----0--2-----2--0----|-----0--2-----2--0--|
D--0-------------------|--0-----------------|
A----------------------|--------------------|
D----------------------|--------------------|

Repeat three more times.

This is my first tab.
Any comments, suggestions, and messages, please send them to johnnyrhcpa7x@yahoo.com.ar.
Enjoy :)
Suggest correction
Creating personal tab
Creating personal tab
You can edit any tab online and save it as your Personal.

You can edit, replace or remove any tab part or add personal notes – all changes will be seen only by you.

Personal tabs can be accessed anytime from any device, even offline.
Learn more »
Give kudos to tab author, rate the tab!
1 2 3 4 5
comments
print report bad tab
1 comment total.
0 reply
CruzRN 16 Mar 27, 2013 08:53 AM

I would like to correct something:

E----------------------|--------------------|
B-----------4----------|-----------4--------|
G-----0--3-----3--0----|--------------------|
D--(4)-----------------|-----4--6-----6--4--|
A----------------------|--------------------|
D----------------------|--6-----------------|

E----------------------|--------------------|
B-----------4----------|-----------4--------|
G-----0--3-----3--0----|--------------------|
D----------------------|-----4--6-----6--4--|
A((4))-----------------|--------------------|
D----------------------|--6-----------------|

(4) is incorrect, it should be ((4)) instead. Not on 4th string, it should be on 5th. My bad, sorry about that.

guest
You may want to rate the tab now too:
select rating
Wanna post a correction for this tab? Suggest correction