Oops, an error
Loading. Please wait.
We have an official Keine Lust tab made by UG professional guitarists. Check out the tab »
×
895 views 12 this week
no commentswrite comment
1 2 3 4 5
2 more votes to show rating
add to favorites
×
Save as Personal and add changes to this tab that will be seen only by you. Learn more ›
×
You can save this tab as Personal to edit and correct it or add notes. All changes will be seen only by you. Learn more »
launch autoscroll
font size
0
reset
how to read this tab
guitar tuner
edit
Autoscroll
slow
fast
+/-
esc
set tempo
stop
-------------------------------------------------------------------------------
                             Keine Lust - Rammstein
-------------------------------------------------------------------------------
Tabbed by: Bee-Ay

Tuning: C-G-C-F-A-D


Now... I fell that I should add a few words regarding this songs production..
Many, many tabs of this song already have some pretty excellent and decent correction.
However, the chorus (especially) is layered with tons of guitar overdubs.
As we all know, the chorus delivers (well, the song in general!) some very, very intense low end
from the bass and guitars. The kick from the drum kit can some times (to some degree) totally disappear and
just make a click because of all the low intense frequencies that the guitars and bass delivers
- but yet the guitars still have a lot of definition.
This is because of all the overdubs and the EQ'ing applied to the guitars.
How many times each guitar part is overdubbed is unknown.
Remember - in the studio-world, everything is legal when it comes to production; no barriers exist
when it comes to achieve sound.



D|----------------------------------------------------------------------------------|
A|----------------------------------------------------------------------------------|
F|*--------------------------------------------------------------------------8/5-5-*|
C|*--------------------------------------------------------------------------x-x-x-*|
G|--0-0-0-0-0-0-0-0--0--0-0-0-0-0-0-0-0--0--0-0-0-0-0-0-0-0--0--0-0-0-0-0-0--6/3-3--|
C|--0-0-0-0-0-0-0-0--0--0-0-0-0-0-0-0-0--0--0-0-0-0-0-0-0-0--0--0-0-0-0-0-0---------|
pm  . . . . . . . .     . . . . . . . .     . . . . . . . .     . . . . . . 


[Verse]

Guitar 1
D|-----------------|
A|-----------------|
F|*---------------*|
C|*---------------*|
G|-----------------|
C|--0-0-0-0-0-0-0--|
pm  . . . . . . .


Guitar 2 kicks in
D|----------------------------------------------|
A|----------------------------------------------|
F|----------------------------------------------|
C|----------------------------------------------|
G|----------------------------------------------|
C|--0-0-0-0-0-0-3,1*-3,1*-0-0-0-0-0-0-2,8*-2,8*-|
pm  . . . . . .           . . . . . .            




[Chorus]

NOTE: If you listen carefully you will notice that the last chord in the choruses are not 16th notes
      as the rest. The drum fills just cover those spaces and make you think so.


Guitar 1 is the main guitar/driving force of the chorus.
It's responsible for all the low end (along with the bass) because of the high-gained and muted notes.
D|-------------------------------------------------------------------------------------------------|
A|-------------------------------------------------------------------------------------------------|
F|-------------------------------------------------------------------------------------------------|
C|-------------------------------------------------------------------------------------------------|
G|-0-0-0-0-0-0-0-0-0-0-0-0-7-7-7-7-7-7-7-7-7-7-7-7-5-5-5-5-5-5-5-5-5-5-5-5-8-8-8-8-8-8-8-8-8-8-8-8-|
C|-0-0-0-0-0-0-0-0-0-0-0-0-7-7-7-7-7-7-7-7-7-7-7-7-5-5-5-5-5-5-5-5-5-5-5-5-8-8-8-8-8-8-8-8-8-8-8-8-|
pm . . . . . . . . . . . . . . . . . . . . . . . . . . . . . . . . . . . . . . . . . . . . . . . .

D|-----------------------------------------------------------------------------|
A|-----------------------------------------------------------------------------|
F|-----------------------------------------------------------------------------|
C|-------------------------------------------------------------------------(8)-|
G|-0-0-0-0-0-0-0-0-0-0-0-0-7-7-7-7-7-7-7-7-7-7-7-7-5-5-5-5-5-5-5-5-5-5-5-5-(8)-|
C|-0-0-0-0-0-0-0-0-0-0-0-0-7-7-7-7-7-7-7-7-7-7-7-7-5-5-5-5-5-5-5-5-5-5-5-5-(8)-|
pm . . . . . . . . . . . . . . . . . . . . . . . . . . . . . . . . . . . . 



The 2nd guitar is also a main guitar. It enhances some definition to the riff and has a small variation.
D|-------------------------------------------------------------------------------------------------|
A|-------------------------------------------------------------------------------------------------|
F|-------------------------------------------------------------------------------------------------|
C|-7-7-7-7-7-7-7-7-7-7-7-7-7-7-7-7-7-7-7-7-7-7-7-7-5-5-5-5-5-5-5-5-5-5-5-5-8-8-8-8-8-8-8-8-8-8-8-8-|
G|-5-5-5-5-5-5-5-5-5-5-5-5-7-7-7-7-7-7-7-7-7-7-7-7-5-5-5-5-5-5-5-5-5-5-5-5-8-8-8-8-8-8-8-8-8-8-8-8-|
C|-0-0-0-0-0-0-0-0-0-0-0-0-7-7-7-7-7-7-7-7-7-7-7-7-5-5-5-5-5-5-5-5-5-5-5-5-8-8-8-8-8-8-8-8-8-8-8-8-|

D|------------------------------------------------------------------------------|
A|------------------------------------------------------------------------------|
F|------------------------------------------------------------------------------|
C|--7-7-7-7-7-7-7-7-7-7-7-7-7-7-7-7-7-7-7-7-7-7-7-7-5-5-5-5-5-5-5-5-5-5-5-5-(8)-|
G|--5-5-5-5-5-5-5-5-5-5-5-5-7-7-7-7-7-7-7-7-7-7-7-7-5-5-5-5-5-5-5-5-5-5-5-5-(8)-|
C|--0-0-0-0-0-0-0-0-0-0-0-0-7-7-7-7-7-7-7-7-7-7-7-7-5-5-5-5-5-5-5-5-5-5-5-5-(8)-|



Guitar 3 is another minor layer to the main guitars but this one simply helps to enhance
the fundamental tone of the entire guitar-figure - again definition.
D|-------------------------------------------------------------------------------------------------|
A|-------------------------------------------------------------------------------------------------|
F|-------------------------------------------------------------------------------------------------|
C|-------------------------------------------------------------------------------------------------|
G|-------------------------------------------------------------------------------------------------|
C|-0-0-0-0-0-0-0-0-0-0-0-0-7-7-7-7-7-7-7-7-7-7-7-7-5-5-5-5-5-5-5-5-5-5-5-5-8-8-8-8-8-8-8-8-8-8-8-8-|

D|-----------------------------------------------------------------------------|
A|-----------------------------------------------------------------------------|
F|-----------------------------------------------------------------------------|
C|-----------------------------------------------------------------------------|
G|-----------------------------------------------------------------------------|
C|-0-0-0-0-0-0-0-0-0-0-0-0-7-7-7-7-7-7-7-7-7-7-7-7-5-5-5-5-5-5-5-5-5-5-5-5-(8)-|






The second chorus repeats as the first chorus and is played twice this time.
The last pattern though, has a small change for the end note.
That ending note, as in the first chorus, simply rings out all the way to the break.

Guitar 1 last pattern before break:
D|------------------------------------------------------------------------------|
A|------------------------------------------------------------------------------|
F|------------------------------------------------------------------------------|
C|--------------------------------------------------------------------------(3)-|
G|--0-0-0-0-0-0-0-0-0-0-0-0-7-7-7-7-7-7-7-7-7-7-7-7-5-5-5-5-5-5-5-5-5-5-5-5-(3)-|
C|--0-0-0-0-0-0-0-0-0-0-0-0-7-7-7-7-7-7-7-7-7-7-7-7-5-5-5-5-5-5-5-5-5-5-5-5-(3)-|
pm  . . . . . . . . . . . . . . . . . . . . . . . . . . . . . . . . . . . .


Guitar 2 last pattern before break:
D|------------------------------------------------------------------------------|
A|------------------------------------------------------------------------------|
F|------------------------------------------------------------------------------|
C|--7-7-7-7-7-7-7-7-7-7-7-7-7-7-7-7-7-7-7-7-7-7-7-7-5-5-5-5-5-5-5-5-5-5-5-5-(3)-|
G|--5-5-5-5-5-5-5-5-5-5-5-5-7-7-7-7-7-7-7-7-7-7-7-7-5-5-5-5-5-5-5-5-5-5-5-5-(3)-|
C|--0-0-0-0-0-0-0-0-0-0-0-0-7-7-7-7-7-7-7-7-7-7-7-7-5-5-5-5-5-5-5-5-5-5-5-5-(3)-|



Guitar 3 last pattern before break:
D|-----------------------------------------------------------------------------|
A|-----------------------------------------------------------------------------|
F|-----------------------------------------------------------------------------|
C|-----------------------------------------------------------------------------|
G|-----------------------------------------------------------------------------|
C|-0-0-0-0-0-0-0-0-0-0-0-0-7-7-7-7-7-7-7-7-7-7-7-7-5-5-5-5-5-5-5-5-5-5-5-5-(3)-|


Break:
D|------------------------|----------------------|
A|------------------------|----------------------|
F|------------------------|----------------------|
C|-0--------7----5----8---|-0--------7----5----8-|
G|-0--------7----5----8---|-0--------7----5----8-|
C|-0--------7----5----8---|-0--------7----5----8-|



Bridge:
D|-------------------|-------------------|-------------------|
A|-------------------|-------------------|-------------------|
F|-------------------|-------------------|-------------------|
C|----------------x8-|----------------x8-|-7-7-7-7-7-7-7--x4-|
G|-0-0-0-0-0-0-0-----|-0-0-0-0-0-0-0-----|-5-5-5-5-5-5-5-----|
C|-0-0-0-0-0-0-0-----|-0-0-0-0-0-0-0-----|-0-0-0-0-0-0-0-----|
pm . . . . . . .

            
            
Suggest correction
Creating personal tab
Creating personal tab
You can edit any tab online and save it as your Personal.

You can edit, replace or remove any tab part or add personal notes – all changes will be seen only by you.

Personal tabs can be accessed anytime from any device, even offline.
Learn more »
Give kudos to tab author, rate the tab!
1 2 3 4 5
comments
print report bad tab
guest
You may want to rate the tab now too:
select rating
Wanna post a correction for this tab? Suggest correction