Oops, an error
Loading. Please wait.

Laichzeit bass

version 2
version 2

Whole song

Interactive

1,431 views 1 this week
1 commentread comment
1 2 3 4 5
x 3
add to favorites
×
Save as Personal and add changes to this tab that will be seen only by you. Learn more ›
×
You can save this tab as Personal to edit and correct it or add notes. All changes will be seen only by you. Learn more »
launch autoscroll
font size
0
reset
guitar tuner
backing track
0:00
0:00
edit
Autoscroll
slow
fast
+/-
esc
set tempo
stop
Author
Difficulty
No bass in intro (bass starts at 0:14) 

G||----------------------------| 
D||----------------------------| 
A||----------------------------| 
E||--0-0-0--0-0-0--0--0--3--1--| x 6 

Then play: 

G||----------------------------| 
D||----------------------------| 
A||----------------------------| 
E||--0-0-0--0-0-0--0--1/-3/-1--| 

Pre-Bridge (1:57) 

G||----------------------------| 
D||----------------------------| 
A||----------------------------| 
E||--3---3---3---3-3--6--5-----| x 3 

Then play: 

G||----------------------------| 
D||----------------------------| 
A||----------------------------| 
E||-3--3--3--3--3-3-3--3-3-3-3-| 

G||----------------------------| 
D||----------------------------| 
A||----------------------------| 
E||-0--------------------------| 

No bass during bridge (2:11) 

Afterwards it repeats until the ending. The ending goes: 

G||----------------------------| 
D||----------------------------| 
A||----------------------------| 
E||--0-0-0--0-0-0----1----1----| x 3, getting slower each time 

Tempo should be ~ 113 BPM at the end.  

            
            
Suggest correction
Creating personal tab
Creating personal tab
You can edit any tab online and save it as your Personal.

You can edit, replace or remove any tab part or add personal notes – all changes will be seen only by you.

Personal tabs can be accessed anytime from any device, even offline.
Learn more »
Give kudos to tab author, rate the tab!
1 2 3 4 5
comments
print report bad tab
1 comment total.
0 reply
slipknot_4_life 51 May 10, 2010 01:16 AM

Pre-Bridge (1:57)

G||----------------------------|
D||----------------------------|
A||----------------------------|
E||--3---3---3---3-3--6--4-----| x 3

I think sounds more right

Killer tab otherwise

guest
You may want to rate the tab now too:
select rating
Wanna post a correction for this tab? Suggest correction