Oops, an error
Loading. Please wait.

Live Aus Berlin Tab

7,501 views 3 this week
6 commentsread comments
1 2 3 4 5
worth learning
x 12
add to favorites
launch autoscroll
font size
0
reset
how to read this tab
guitar tuner
Autoscroll
slow
fast
+/-
esc
set tempo
stop
Help us to improve Ultimate-Guitar.com Take our survey!
×
                       RAMMSTEIN - LIVE AUS BERLIN
Tabbed by:Eduardo lan
Email:eduardolan_12@hotmail.com

01 Spiel Mit Mir
INTRO
e|--------------------------------------------------------------|
B|--------------------------------------------------------------|
G|--------------------------------------------------------------|
D|-2-2-2---2-2-2---2-2-2---2-2-2---2-2-2---3-3-3---3-3-3--------|
A|-2-2-2---2-2-2---2-2-2---2-2-2---2-2-2---3-3-3---3-3-3--------|
E|-0-0-0---0-0-0---0-0-0---0-0-0---0-0-0---1-1-1---1-1-1--------|
   PM...   PM...   PM...   PM...   PM...   PM...   PM...  
PRE-CHORUS                                           
e|----------------------------------------------------------------------------|
B|----------------------------------------------------------------------------|
G|----------------------------------------------------------------------------|
D|-7-7-7---7-7-7---7-7-7---7-7-7-7-7---8-8-8---5-5-5---7-7-7---7-7-7---7-7-7--|
A|-7-7-7---7-7-7---7-7-7---7-7-7-7-7---8-8-8---5-5-5---7-7-7---7-7-7---7-7-7--|
E|-5-5-5---5-5-5---5-5-5---5-5-5-5-5---6-6-6---3-3-3---5-5-5---5-5-5---5-5-5--|
   PM...   PM...   PM...   PM.......   PM...   PM...   PM...   PM....  PM...   
e|----------------|
B|----------------|
G|----------------|
D|-7-7-7-7-7---8--|
A|-7-7-7-7-7---8--|
E|-5-5-5-5-5---6--|
   PM.......   .
CHORUS
e|-------------------------------------|
B|-------------------------------------|
G|-------------------------------------|
D|-9-9-9--2-2-2--7-7-7--3-3-3--2-2-2---|
A|-9-9-9--2-2-2--7-7-7--3-3-3--2-2-2---|
E|-7-7-7--0-0-0--5-5-5--1-1-1--0-0-0---|
   PM...  PM...  PM...  PM...  PM...
SOLO
e|----------------------------------------------------------------------------|
B|-13-12-13-12-13-12-13-12-13-12-13-12-13-12-13-12-11-12-11-12-11-12-11-12/15^|
G|----------------------------------------------------------------------------|
D|----------------------------------------------------------------------------|
A|----------------------------------------------------------------------------|
E|----------------------------------------------------------------------------|

02 Herzeleid
INTRO
e|-----------------|
B|-----------------|
G|-----------------|
D|-0-0-0-0--3--5---|
A|-0-0-0-0--3--5---|
E|-0-0-0-0--3--5---|X15
   PM.....  .  .
e|-----------------------|
B|-----------------------|
G|-----------------------|
D|-2-4-0-4-0-4-4-5-5-5-5-|
A|-2-4-0-4-0-4-4-5-5-5-5-|
E|-0-2-0-2-0-2-2-3-3-3-3-|
BRIDGE
e|-------------------------------------|
B|-------------------------------------|
G|-3--3-3-2-2-2-2-3-3-3-5-2-2-2-3-9----|
D|-3--3-3-2-2-2-2-3-3-3-5-2-2-2-3-9----|
A|-1--1-1-0-0-0-0-1-1-1-3-0-0-0-1-7----|
E|-------------------------------------|

03 Bestafe Mich
e|-------------------|
B|-------------------|
G|-4--5--4-5-7-5-4---|
D|-4--5--4-5-7-5-4---|
A|-2--3--2-3-5-3-2---|
E|-------------------|

e|------------------------|
B|------------------------|
G|------------------------|
D|-2-2-2-2-2-3-2-2-2-2-3--|
A|-2-2-2-2-2-3-2-2-2-2-3--|
E|-0-0-0-0-0-2-0-0-0-0-2--|x10
   PM...................

04 Weisses Fleisch
INTRO
e|-----------------------|
B|-----------------------|
G|--------------------4^-|
D|-0-4-5--0-4-5--0-4-5---|
A|-0-4-5--0-4-5--0-4-5---|
E|-0-2-3--0-2-3--0-2-3---|x15

CHORUS
e|------------------|
B|------------------|
G|------------------|
D|-2---7-5-3---5-2--|
A|-2---7-5-3---5-2--|
E|-0---5-3-2---3-0--|X15

SOLO
e|------------------------------------------------------------17^-|
B|-17^-17^-17^-17^-17^-17^-17^-----17^-17^-17^-17^-17^-17^-17^----|
G|-----------------------------16^--------------------------------|
D|----------------------------------------------------------------|
A|----------------------------------------------------------------|
E|----------------------------------------------------------------|

e|--------------------------------17P14-17P14-17P14------------------------------|
B|-17^-17^-17^-17^-17^-17^-17^---------------------17P14-17P14-------------------|
G|-----------------------------16^----------------------------17P14-17P14--------|
D|-----------------------------------------------------------------------17P14/0-|
A|-------------------------------------------------------------------------------|
E|-------------------------------------------------------------------------------|

05 Sehnsucht
e|---------------------|
B|---------------------|
G|-9/7-10/9-12-10-9/7--|
D|-9/7-10/9-12-10-9/7--|
A|-7/5--8/7-10--8-7/5--|
E|---------------------|

e|------------------------------|
B|------------------------------|
G|-9---------9---------5--5-4-2-|
D|-9-7-6-5-0-9-7-6-5-0-5--5-4-2-|
A|-7-7-6-5-0-7-7-6-5-0-3--3-2-0-|
E|---5-4-3-0---5-4-3-0----------|x2
     PM.....   PM.....

e|---------|
B|-5-------|
G|-4-2-5---|
D|-2-2-5-2-|
A|---0-3-2-|
E|-------0-|x2

06 Asche Zu Asche
e|-------------------------------------|
B|-------------------------------------|
G|-------------------------------------|
D|-5-x-x-x-7-x-x-x-8-x-x-x-7-x-5-x-x-x-|
A|-5-x-x-x-7-x-x-x-8-x-x-x-7-x-5-x-x-x-|
E|-3-0-0-0-5-0-0-0-6-0-0-0-5-0-3-0-0-0-|x20

07 Wilder Wein
this song is touched in a acoustic guitar
e|--0--|--2--|--0--|--2--|
B|--0--|--3--|--1--|--3--|
G|--0--|--2--|--0--|--2--|
D|--2--|--0--|--2--|--0--|
A|--2--|-----|--3--|-----|
E|--0--|-----|-----|-----|

08 Klavier
e|--------------------------------|
B|--------------------------------|
G|------14------12------10------9-|
D|---10------10------10------10---|
A|-0-------0-------0-------0------|
E|--------------------------------|

e|--------------------------------|
B|--------------------------------|
G|------12------10------9------9--|
D|---10------10------10-----10----|
A|-8-------8-------8------8-------|
E|--------------------------------|
every note is played many times
e|------------------------------------------------------------|
B|------------------------------------------------------------|
G|------------------------------------------------------------|
D|--6--|--8--|--6--|--5--|--6--|--8--|--6--|--5--|--10--|--5--|
A|--6--|--8--|--6--|--5--|--6--|--8--|--6--|--5--|--10--|--5--|
E|--6--|--8--|--6--|--5--|--6--|--8--|--6--|--5--|--10--|--5--|

e|-----------------------------------------------------|
B|-----------------------------------------------------|
G|-----------------------------------------------------|
D|--6--|--8--|--6--|--3--|--5--|--6--|--5--|--3--|--5--|
A|--6--|--8--|--6--|--3--|--5--|--6--|--5--|--3--|--5--|
E|--6--|--8--|--6--|--3--|--5--|--6--|--5--|--3--|--5--|x2

e|-----|-----|-------|-----|------|------|------|------|------|-----|------|----|
B|--5--|--12-|---10--|--5--|--12--|--13--|--12--|--10--|--12--|--13-|--10--|--5-|
G|--5--|--12-|---10--|--5--|--12--|--13--|--12--|--10--|--12--|--13-|--10--|--5-|
D|------------------------------------------------------------------------------|
A|------------------------------------------------------------------------------|
E|------------------------------------------------------------------------------|

09 Heirate Mich
e|-----------------|
B|-----------------|
G|-----------------|
D|-2-2-2-2-5/4-5/4-|
A|-2-2-2-2-5/4-5/4-|
E|-0-0-0-0-3/2-3/2-|x20
BRIDGE
e|-----------------------------------------|
B|-----------------------------------------|
G|-4-4/5-4-4/5-4-4/4-6-6/7-6-6/7-6-6/7-5/2-|
D|-4-4/5-4-4/5-4-4/4-6-6/7-6-6/7-6-6/7-5/2-|
A|-2-2/3-2-2/3-2-2/3-4-4/5-4-4/5-4-4/5-3/0-|
E|-----------------------------------------|

10 Du Riechst So Gut
INTRO
e|-------------------------------------------|
B|-------------------------------------------|
G|----------------------------------------3^-|
D|-1-0-1-0-1-1-0-1-0-0-1-0-1-0-1-1-0-1-0-0---|
A|-1-0-1-0-1-1-0-1-0-0-1-0-1-0-1-1-0-1-0-0---|
E|-1-0-1-0-1-1-0-1-0-0-1-0-1-0-1-1-0-1-0-0---|
   PM.....................................
CHORUS
e|-------------------------|
B|-------------------------|
G|-------------------------|
D|-4-7-3-4-7-3-4-7-3-9-7-6-|
A|-4-7-3-4-7-3-4-7-3-9-7-6-|
E|-4-7-3-4-7-3-4-7-3-9-7-6-|
SOLO
e|---------------------------------|
B|-9-9-9-9-8-8-8-9-----------------|
G|-----------------8-8-8-8-8-8-8-8-|
D|---------------------------------|
A|---------------------------------|
E|---------------------------------|X15

11 Du Hast
INTRO
e|--------------------------------------------------|
B|--------------------------------------------------|
G|--------------------------------------------------|
D|-7-5-2-2-2-2-2-2-|           |-5-7-7-7-7-7-7-7----|
A|-7-5-2-2-2-2-2-2-|           |-5-7-7-7-7-7-7-7----|
E|-5-3-0-0-0-0-0-0-|X6         |-3-5-5-5-5-5-5-5----|
       PM.........                    PM........
CHORUS
e|--------------------------------------------------|
B|--------------------------------------------------|
G|--------------------------------------------------|
D|-7-5-2-2-2-2-2-2-|           |-5-7-7-7-7-7-7-7----|
A|-7-5-2-2-2-2-2-2-|           |-5-7-7-7-7-7-7-7----|
E|-5-3-0-0-0-0-0-0-|X2         |-3-5-5-5-5-5-5-5----|X2
       PM.........                   PM.........

e|-----------------------------------------------------------|
B|-----------------------------------------------------------|
G|-----------------------------------------------------------|
D|-7-10-10-10-10-10-10-10--12-9-9-9-9-9-9-9--7-5-2-2-2-2-2-2-|
A|-7-10-10-10-10-10-10-10--12-9-9-9-9-9-9-9--7-5-2-2-2-2-2-2-|
E|-5--8--8--8--8--8--8--8--10-7-7-7-7-7-7-7--5-3-0-0-0-0-0-0-|
      PM.................     PM...........      PM.........
12 Engel
e|------------------------|
B|------------------------|
G|------------------------|
D|------------------------|
A|-3-5-6-5-3-5-3-5-6-5xx--|
E|------------------------|x10

13 Rammstein
Paul part
e|----------------------------|
B|----------------------------|
G|----------------------------|
D|-2-2-2-2/3--|       |-3/2---|
A|-2-2-2-2/3--|       |-3/2---|
E|-0-0-0-0/1--|x3     |-1/0---|
   PM...
Richard part
e|--------------------------------|
B|--------------------------------|
G|--------------------------------|
D|-0-0-0-12/13--|       |-13/12---|
A|-0-0-0-12/13--|       |-13/12---|
E|-0-0-0-12/13--|x3     |-13/12---|
   PM...
BRIDGE
e|-------------------------|
B|-------------------------|
G|-------------------------|
D|-5/2----------5/2--------|
A|-5/2----------5/2--------|
E|-3/0-----XXXXX3/0--------|
SOLO
e|-7p0-9p0-10p0-|x10 |7P0-9P0|X2 |---------------------------|
B|--------------|    |-------|   |7p0-8p0-10p0-8p0-7p0-7p8p7-|
G|-----------------------------------------------------------|
D|-----------------------------------------------------------|
A|-----------------------------------------------------------|
E|-----------------------------------------------------------|
Richard
e|------------------------------|
B|-5-8-3-5-10-13-5-8-3-5-0-1----|
G|------------------------------|
D|------------------------------|
A|------------------------------|
E|------------------------------|x2

14 Tier
INTRO
e|--------------------------------------------------|
B|--------------------------------------------------|
G|-5/7-7-7-5/7-7-7-8-7-5/7-5/7-7-7-5/7-7-7-8-9-7----|
D|-5/7-7-7-5/7-7-7-8-7-5/7-5/7-7-7-5/7-7-7-8-9-7----|
A|-3/5-5-5-3/5-5-5-6-5-3/5-3/5-5-5-3/5-5-5-6-8-5----|
E|--------------------------------------------------|x6
CHORUS
e|---------------------------------------------------------|
B|---------------------------------------------------------|
G|---------------3-3-3-3-3-3-3-5-5-5-5-5-5-5---------------|
D|-5-5-5-5-5-5-5-3-3-3-3-3-3-3-5-5-5-5-5-5-5-3-3-3-3-3-3-3-|
A|-5-5-5-5-5-5-5-1-1-1-1-1-1-1-3-3-3-3-3-3-3-3-3-3-3-3-3-3-|
E|-3-3-3-3-3-3-3-----------------------------1-1-1-1-1-1-1-|X2
  PM......................................................
BRIDGE
e|---------|
B|---------|
G|---------|
D|-7/9-7/9-|
A|-7/9-7/9-|
E|-5/7-5/7-|X2

15 Laichzeit
e|-----------------|
B|-----------------|
G|-----------------|
D|-222-222-222-----|
A|-222-222-222-----|
E|-000-000-000-3-2-|
   PM.............

e|-----------------------------------|
B|-----------------------------------|
G|-----------------------------------|
D|-5-5-5-5-5-5-5-5-5-5-5-5-5-7-6-5-x-|
A|-5-5-5-5-5-5-5-5-5-5-5-5-5-7-6-5-x-|
E|-3-3-3-3-3-3-3-3-3-3-3-3-3-5-4-3-0-|X2

e|--------------|
B|--------------|
G|--------------|
D|-222-222-0-0--|
A|-222-222-0-0--|
E|-000-000-0-0--|X14
   PM.........

16 Wollt Ihr Das Bett In Flammen Sehen?
e|-------------------------------------------------------------------------|
B|-------------------------------------------------------------------------|
G|-5/7-8-7-|      |-10-10-10-10-10-10-10-10-10-10-10-10-10-10-10-10--------|
D|-5/7-8-7-|      |-10-10-10-10-10-10-10-10-10-10-10-10-10-10-10-10--------|
A|-3/5-6-5-|      |--8--8--8--8--8--8--8--8--8--8--8--8--8--8--8--8--------|
E|---------|x8    |--------------------------------------------------------|
CHORUS
e|------------------------|
B|------------------------|
G|-7-7-7-5-5-7-7-8-7-5-5--|
D|-7-7-7-5-5-7-7-8-7-5-5--|
A|-5-5-5-3-3-5-5-6-5-3-3--|
E|------------------------|x7

17 Seemann
e|---------------------------------------------------------------------------------|
B|---------------------------------------------------------------------------------|
G|-11-11-11-11-11-11-11-11-11-11-11-11-11-11-11-11-9-9-9-9-9-9-9-9-9-9-9-9-9-9-9-9-|
D|-11-11-11-11-11-11-11-11-11-11-11-11-11-11-11-11-9-9-9-9-9-9-9-9-9-9-9-9-9-9-9-9-|
A|--9--9--9--9--9--9--9--9--9--9--9--9--9--9--9--9-7-7-7-7-7-7-7-7-7-7-7-7-7-7-7-7-|
E|---------------------------------------------------------------------------------|

e|------------------------------------------------------------------|
B|------------------------------------------------------------------|
G|-7-7-7-7-7-7-7-7-7-7-7-7-7-7-7-7-6-6-6-6-6-6-6-6-6-6-6-6-6-6-6-6--|
D|-7-7-7-7-7-7-7-7-7-7-7-7-7-7-7-7-6-6-6-6-6-6-6-6-6-6-6-6-6-6-6-6--|
A|-5-5-5-5-5-5-5-5-5-5-5-5-5-5-5-5-4-4-4-4-4-4-4-4-4-4-4-4-4-4-4-4--|
E|------------------------------------------------------------------|
comments
print report bad tab
6 comments total. Showing first comments.
0 reply
Jim #4 508 wrote on November 17 2005, 08:22 am

wrong tunnings...

+1 reply
GiantRaven 1,301 wrote on January 11 2006, 11:23 am

wrong tunings, lots of entire songs missed, completly and utterly wrong....

0 reply
Nuums 308 wrote on April 13 2006, 10:36 am

have you ever heard of drop d tuning? ...
those
--0--
--0--
--0-- chords sounds like shit with standard tuning!

I want to post or [tab]
guest
You may want to rate the tab now too:
select rating
Please do not post tabs as comments. Select "correction" instead!