Oops, an error
Loading. Please wait.

Los tab

version 5
version 5
63,617 views 6 this week
2 commentsread comments
1 2 3 4 5
x 5
add to favorites
×
Save as Personal and add changes to this tab that will be seen only by you. Learn more ›
×
You can save this tab as Personal to edit and correct it or add notes. All changes will be seen only by you. Learn more »
launch autoscroll
font size
0
reset
how to read this tab
guitar tuner
backing track
0:00
0:00
edit
Autoscroll
slow
fast
+/-
esc
set tempo
stop
----------------------------------------------------------------
This is the Volkerball Live in Nimes edition
please send hate mail or kudoos on how the tab is
thelampshadeparade@gmail.com
Thanks!
----------------------------------------------------------------
Guitar 1 - Richard Z. Krupse ( Drop C Acoustic Guitar )
Guitar 2 - Paul H. Landers   ( Drop C Acoustic Guitar )

Intro x2
(Guitar 1)

E--x--x--x--x--x--x--x--x--x--x--x--x--x|
B--x--x--x--x--x--x--x--x--x--x--x--x--x|
G--5--x--x--5--x--x--5--x--x--5--x--x--7|
D--5--1--3--5--1--3--5--1--3--5--1--3--7|
A--5--1--3--5--1--3--5--1--3--5--1--3--7|
C--x--1--3--x--1--3--x--1--3--x--1--3--x|


Verses ( verses played throughout the song until solo )
(Guitar 1 & 2)

E--x--x--x--x--x--x--x--x--x--x--x--x--x|
B--x--x--x--x--x--x--x--x--x--x--x--x--x|
G--5--x--x--5--x--x--5--x--x--5--x--x--7|
D--5--1--3--5--1--3--5--1--3--5--1--3--7|
A--5--1--3--5--1--3--5--1--3--5--1--3--7|
C--x--1--3--x--1--3--x--1--3--x--1--3--x|


Solo happens twice, first time is (guitar 2)
second solo is (guitar 1 )

E--------------------------|
B--------------------------|
G----5--3------------------|  played numereous times
D---------5---5---5--------|
A--5--------3--3-----5---3-|
C--------------------------|

Solo Keeps going while Till is playing the harmonica

Interlude

E--x--x--x--x--x--x--x--x--x--|
B--x--x--x--x--x--x--x--x--x--|
G--5--x--x--5--x--x--5--x--x--|
D--5--1--3--5--1--3--5--1--3--|
A--5--1--3--5--1--3--5--1--3--|
C--x--1--3--x--1--3--x--1--3--|


Verse

E--x--x--x--x--x--x--x--x--x--x--x--x--x|
B--x--x--x--x--x--x--x--x--x--x--x--x--x|
G--5--x--x--5--x--x--5--x--x--5--x--x--7|
D--5--1--3--5--1--3--5--1--3--5--1--3--7|
A--5--1--3--5--1--3--5--1--3--5--1--3--7|
C--x--1--3--x--1--3--x--1--3--x--1--3--x|

Solo

E--------------------------|
B--------------------------|
G----5--3------------------|  played numereous times
D---------5---5---5--------|
A--5--------3--3-----5---3-|
C--------------------------|


Solo Keeps going while Till is playing harmonica again, 
as that happens guitar 2 swtiches to electric guitar with distortion
then while keyboard solo goes guitar 1 swtiches to electric w distortion

Keyboard solo with guitar then

E--x--x--x--x--x--x--x--x--x--|
B--x--x--x--x--x--x--x--x--x--|
G--5--x--x--5--x--x--5--x--x--|
D--5--1--3--5--1--3--5--1--3--|
A--5--1--3--5--1--3--5--1--3--|
C--x--1--3--x--1--3--x--1--3--|

Then is palm muted till solo is over


Verse after keyboard solo
Guitar 1 -( Drop C Electric Guitar w/ distortion )
Guitar 2 -( Drop C Electric Guitar w/ distortion )

E--x--x--x--x--x--x--x--x--x--x--x--x--x|
B--x--x--x--x--x--x--x--x--x--x--x--x--x|
G--5--x--x--5--x--x--5--x--x--5--x--x--7|
D--5--1--3--5--1--3--5--1--3--5--1--3--7|
A--5--1--3--5--1--3--5--1--3--5--1--3--7|
C--x--1--3--x--1--3--x--1--3--x--1--3--x|



Thanks

            
            
Suggest correction
Creating personal tab
Creating personal tab
You can edit any tab online and save it as your Personal.

You can edit, replace or remove any tab part or add personal notes – all changes will be seen only by you.

Personal tabs can be accessed anytime from any device, even offline.
Learn more »
comments
print report bad tab
2 comments total.
0 reply
Liverkanuckkid 51 Jul 07, 2010 09:14 PM

This is the LIVE VERSION of VOLKERBALL in Nimes

0 reply
andrejs1233 10 Feb 19, 2015 11:16 AM

Nice job!
This seems accurate tab for Volkerball concert edition (after seeing song video on youtube).

Thank You very much!!! :)

guest
You may want to rate the tab now too:
select rating
Wanna post a correction for this tab? Suggest correction