Oops, an error
Loading. Please wait.

Mein Herz Brennt Tab

version 1
version 1

Whole song

Video

73,149 views 180 this week
5 commentsread comments
1 2 3 4 5
excellent!
x 16
add to favorites
launch autoscroll
font size
0
reset
how to read this tab
guitar tuner
Autoscroll
slow
fast
+/-
esc
set tempo
stop
Help us to improve Ultimate-Guitar.com Take our survey!
×
Author
Tuning
Power 236
D A D G B E
Artist: Rammstein
Song: Mein Herz Brennt
Tabbed by: Peter (Pétur)


 This is in a right order.
 COOL song!!!!


 (Drop D tuning)

 Song played w/dist


   Main Riff:
             ____________
            |repeat this |
          /part 3 times\
           /              \
E| -------|----------------|----------------|
B| -------|----------------|----------------|
G| -5555--|5555--55555555--|5555xx5-6-------|
D| -5555--|5555--55555555--|5555xx3-4-------|
A| -3333--|3333--33333333--|3333xx3-4-------|
D| -------|----------------|----------------|
          And repeat the hole riff 2 times

   Riff 2:              repeat  riff 2 times
E| -----------------------------------------|
B| -----------------------------------------|
G| -5---------------------------------------|
D| -5----------3----------6----------5------|
A| -3----------3----------6----------5------|
D| ------------3----------6----------5------|
 Nun liebe kinder...........

   Main Riff:
             ____________
            |repeat this |
          /part 3 times\
           /              \
E| -------|----------------|----------------|
B| -------|----------------|----------------|
G| -5555--|5555--55555555--|5555xx5-6-------|
D| -5555--|5555--55555555--|5555xx3-4-------|
A| -3333--|3333--33333333--|3333xx3-4-------|
D| -------|----------------|----------------|

   Riff 2:              repeat  riff 2 times
E| -----------------------------------------|
B| -----------------------------------------|
G| -5---------------------------------------|
D| -5----------3----------6----------5------|
A| -3----------3----------6----------5------|
D| ------------3----------6----------5------|
 Nun liebe kinder...........


   Main Riff:
           ____________
            |repeat this |
          /part 3 times\
           /              \
E| -------|----------------|----------------|
B| -------|----------------|----------------|
G| -5555--|5555--55555555--|5555xx5-6-------|
D| -5555--|5555--55555555--|5555xx3-4-------|
A| -3333--|3333--33333333--|3333xx3-4-------|
D| -------|----------------|----------------|


   Riff 3:
           ____________
            |repeat this |
          /part 3 times\
           /              \
E| -------|----------------|----------------|
B| -------|----------------|----------------|
G| -5555--|5555--55555555--|5555xx5/4/3--2--|
D| -5555--|5555--55555555--|5555xx3/2/1--0--|
A| -3333--|3333--33333333--|3333xx3/2/1--0--|
D| -------|----------------|----------------|
 Let ring:                             ...


   Solo:
            ______________________
         /   repeat this part   \
          /        3 times       \
E| ------|--------------------------|-------|
B| ------|--------------------------|-------|
G| ------|--------------------------|-------|
D| ------|-2-2-2-2/3-3-3/5-5--7-7-7/|-------|
A| ------|--------------------------|-------|
D| ------|--------------------------|-------|


E| -----------------------------------------|
B| -----------------------------------------|
G| --------5-5-5-5-5-5--7------5------------|
D| ---------------------------------8----7--|
A| -----------------------------------------|
D| -----------------------------------------|
                  repeat hole Solo 3 times

 When Richard has played the solo
 one time of three, Paul plays this:

   Riff 4:
E| ------------------------------------------|
B| ------------------------------------------|
G| -----------------------------3333-3333-33-|
D| -0000-0000-00005555-5555-55553333-3333-33-|
A| -0000-0000-00005555-5555-55551111-1111-11-|
D| -0000-0000-00005555-5555-5555-------------|

E| -----------------------------------------|
B| -----------------------------------------|
G| 332222-2222-2222-------------------------|
D| 332222-2222-2222-------------------------|
A| 110000-0000-0000-------------------------|
D| -----------------------------------------|

E| ------------------------------------------|
B| ------------------------------------------|
G| -----------------------------3333-3333-33-|
D| -0000-0000-00005555-5555-55553333-3333-33-|
A| -0000-0000-00005555-5555-55551111-1111-11-|
D| -0000-0000-00005555-5555-5555-------------|

E| -----------------------------------------|
B| -----------------------------------------|
G| 33-5555-55-------------------------------|
D| 33-5555-55-------------------------------|
A| 11-3333-33-------------------------------|
D| -----------------------------------------|

   Main Riff:
             ____________
            |repeat this |
          /part 3 times\
           /              \
E| -------|----------------|----------------|
B| -------|----------------|----------------|
G| -5555--|5555--55555555--|5555xx5-6-------|
D| -5555--|5555--55555555--|5555xx3-4-------|
A| -3333--|3333--33333333--|3333xx3-4-------|
D| -------|----------------|----------------|
          And repeat the hole riff 2 times



************************************

| x  Dead note
| /  Slide up  

************************************
Suggest correction
What's this?
You can suggest a correction to this tab. Community and Mods will review your correction and vote to approve or reject it.
comments
print report bad tab
5 comments total. Showing first comments.
0 reply
Power 236 wrote on March 13 2002, 12:00 am

Why does my real name look so wierd
At the top of the tab? but SO WHAT

0 reply
Power 236 wrote on March 13 2002, 12:00 am

It says:
Tabbed by: "Peter (Pétur)"
that really is wierd!!! But like I told you before: SO WHAT!!!

0 reply
slipknot1991 270 wrote on March 7 2009, 10:50 am

kick ass tab 100% correct

guest
You may want to rate the tab now too:
select rating
Please do not post tabs as comments. Select "correction" instead!