Oops, an error
Loading. Please wait.
We have an official Mein Herz Brennt tab made by UG professional guitarists. Check out the tab »
×

Mein Herz Brennt tab

version 5
version 5

Whole song

Video

821 views 15 this week
no commentswrite comment
1 2 3 4 5
3 more votes to show rating
add to favorites
×
Save as Personal and add changes to this tab that will be seen only by you. Learn more ›
×
You can save this tab as Personal to edit and correct it or add notes. All changes will be seen only by you. Learn more »
launch autoscroll
font size
0
reset
how to read this tab
guitar tuner
backing track
0:00
0:00
edit
Autoscroll
slow
fast
+/-
esc
set tempo
stop
Author
Difficulty
About this tab version
In this tab, I simplified the solo, but it still sounds the exact same, but it's easier. Was this info helpful? Yes No
Song: Mein Herz Brennt
Artist: Rammstein
Tuning: Standard


[Intro:]

e|------------------------------|
B|------------------------------|
G|-5-5-5-5---5-5-5-5-5---5-5-5-5| x3
D|-5-5-5-5---5-5-5-5-5---5-5-5-5|
A|-3-3-3-3---3-3-3-3-3---3-3-3-3|
E|------------------------------|


e|-------------------------------------------------|
B|-------------------------------------------------|
G|-5-5-5-5--5-5-5-5-5-------5-5-5-5--5-5-5-5-5-----|
D|-5-5-5-5--5-5-5-5-5--3-4--5-5-5-5--5-5-5-5-5--3-4|
A|-3-3-3-3--3-3-3-3-3--3-4--3-3-3-3--3-3-3-3-3--3-4|
E|---------------------1-2----------------------1-2|


[Verse:] (Acoustic or no distortion doen't really matter...)

e|-----------------------------|
B|-----------------------------|
G|-----------------------------| x8
D|-----------------------------|
A|-1h3-X-3-X--1h3-X-3-X--1h3-X-|
E|-----------------------------|


[Pre-Chorus:]

e|----------------------------------------------------------|
B|----------------------------------------------------------|
G|-5-5-5-5--5-5-5-5-5--5-5-5-5------------------------------|
D|-5-5-5-5--5-5-5-5-5--5-5-5-5--3-3-3-3--3-3-3-3-3--3-3-3-3-|
A|-3-3-3-3--3-3-3-3-3--3-3-3-3--3-3-3-3--3-3-3-3-3--3-3-3-3-|
E|------------------------------1-1-1-1--1-1-1-1-1--1-1-1-1-|

e|----------------------------------------------------------|
B|----------------------------------------------------------|
G|----------------------------------------------------------|
D|-6-6-6-6--6-6-6-6-6--6-6-6-6--5-5-5-5--5-5-5-5-5--5-5-5-5-|
A|-6-6-6-6--6-6-6-6-6--6-6-6-6--5-5-5-5--5-5-5-5-5--5-5-5-5-|
E|-4-4-4-4--4-4-4-4-4--4-4-4-4--3-3-3-3--3-3-3-3-3--3-3-3-3-|

e|----------------------------------------------------------|
B|----------------------------------------------------------|
G|-5-5-5-5--5-5-5-5-5--5-5-5-5------------------------------|
D|-5-5-5-5--5-5-5-5-5--5-5-5-5--3-3-3-3--3-3-3-3-3--3-3-3-3-|
A|-3-3-3-3--3-3-3-3-3--3-3-3-3--3-3-3-3--3-3-3-3-3--3-3-3-3-|
E|------------------------------1-1-1-1--1-1-1-1-1--1-1-1-1-|

e|-------------------------------------------|
B|-------------------------------------------|
G|-------------------------------------------|
D|-6-6-6-6--6-6-6-6-6--6-6-6-6--5-5-5-5--5-5-|
A|-6-6-6-6--6-6-6-6-6--6-6-6-6--5-5-5-5--5-5-|
E|-4-4-4-4--4-4-4-4-4--4-4-4-4--3-3-3-3--3-3-|

Then back to main riff, then verse, then pre-chorus,
and the 2nd chorus changes a little bit


[Main Riff:]
                                x3
e|------------------------------||------------------------|
B|------------------------------||------------------------|
G|-5-5-5-5---5-5-5-5-5---5-5-5-5||-5-5-5-5--5-5-5-5-5-----|
D|-5-5-5-5---5-5-5-5-5---5-5-5-5||-5-5-5-5--5-5-5-5-5--3-4|
A|-3-3-3-3---3-3-3-3-3---3-3-3-3||-3-3-3-3--3-3-3-3-3--3-4|
E|------------------------------||---------------------1-2|


[Second Chorus:]

                                x3
e|------------------------------||------------------------|
B|------------------------------||------------------------|
G|-5-5-5-5---5-5-5-5-5---5-5-5-5||-5-5-5-5--5-5-5-5-5-----|
D|-5-5-5-5---5-5-5-5-5---5-5-5-5||-5-5-5-5--5-5-5-5-5--3-4|
A|-3-3-3-3---3-3-3-3-3---3-3-3-3||-3-3-3-3--3-3-3-3-3--3-4|
E|------------------------------||---------------------1-2|

                                x3
e|------------------------------||---------------------------------|
B|------------------------------||---------------------------------|
G|-5-5-5-5---5-5-5-5-5---5-5-5-5||-5-5-5-5--5-5-5-5-5--10--8--7~---|
D|-5-5-5-5---5-5-5-5-5---5-5-5-5||-5-5-5-5--5-5-5-5-5--10--8--7~---|
A|-3-3-3-3---3-3-3-3-3---3-3-3-3||-3-3-3-3--3-3-3-3-3---8--6--5~---|
E|------------------------------||---------------------------------|


[Solo:] (With "Wha")

e|-------------------------------------------|
B|-------------------------------------------|
G|-9-9-9-9-9h10-10-10-10h12-12-12-12h14-14-14| x3
D|-------------------------------------------|
A|-------------------------------------------|
E|-------------------------------------------|


e|----------------------------------------|
B|----------------------------------------|
G|-14h17-17-17-17h19-19-19-19--19-17-15-14|
D|----------------------------------------|
A|----------------------------------------|
E|----------------------------------------|

Do all above 3 times



************************************

| h  Hammer-on
| ~  Vibrato
| X  Mute

************************************

            
            
Suggest correction
Creating personal tab
Creating personal tab
You can edit any tab online and save it as your Personal.

You can edit, replace or remove any tab part or add personal notes – all changes will be seen only by you.

Personal tabs can be accessed anytime from any device, even offline.
Learn more »
Give kudos to tab author, rate the tab!
1 2 3 4 5
comments
print report bad tab
guest
You may want to rate the tab now too:
select rating
Wanna post a correction for this tab? Suggest correction