Oops, an error
Loading. Please wait.
We have an official Mein Land tab made by UG professional guitarists. Check out the tab »
×
8,104 views 3 this week
1 commentread comment
1 2 3 4 5
x 3
add to favorites
×
Save as Personal and add changes to this tab that will be seen only by you. Learn more ›
×
You can save this tab as Personal to edit and correct it or add notes. All changes will be seen only by you. Learn more »
launch autoscroll
font size
0
reset
how to read this tab
guitar tuner
edit
Autoscroll
slow
fast
+/-
esc
set tempo
stop
Author
I've made a cover of this song and I receive many messages for the tab. So 
eventually I decided to make it.

My cover : http://www.youtube.com/watch?v=FCXVMbQUyuM

Tuning : CGCFAD

You can manage to count how many times each part is played by listening to the actual song.

Sometimes the main riff is palm-muted.

ENJOY!

MattyPS



Intro/Verse:

D|--------------------------------------------------------------------------------------------------|
A|--------------------------------------------------------------------------------------------------|
F|--------------------------------------------------------------------------------------------------|
C|--------------------------------------------------------------------------------------------------|
G|--------------------------------------------------------------------------------------------------|
C|--12-13-12-12-0-0-10-12---13-12-0-0-10-13-12-0---12-13-12-12-0-0-10-13---13-13-10-10-10-10-11-11--|



Chorus:

D|--------------------------------------------------------------------------------------------------|
A|--------------------------------------------------------------------------------------------------|
F|--------------------------------------------------------------------------------------------------|
C|--------------------------------------------------------------------------------------------------|
G|--------------------------------------------------------------------------------------------------|
C|--12-13-12-12-0-0-10-12---13-12-0-0-10-13-12-0---12-13-12-12-0-0-10-13---13-13-10-10-10-10-11-11--|


D|------------------------------------------------------------------------------------|
A|------------------------------------------------------------------------------------|
F|------------------------------------------------------------------------------------|
C|------------------------------------------------------------------------------------|
G|------------------------------------------------------------------------------------|
C|--12-13-12-12-0-0-10-12---13-12-0-0-10-13-12-0---3-5-5-5-3-5-5-5---3-5-5-5-3-5-5-5--|



Bridge:

D|---------------------------------|
A|---------------------------------|
F|---------------------------------|
C|0h1---------0h1---------0h1------|
G|0h1-0-0-0-0-0h1-0-0-0-0-0h1-0-0--|
C|0h1-0-0-0-0-0h1-0-0-0-0-0h1-0-0--|
      * * * *     * * * *     * *

Played Three Times.

D|--------------------------------------|
A|--------------------------------------|
F|--------------------------------------|
C|--3-5-5-5--3-5-5-5--3-5-5-5--3-5-5-5--|
G|--3-5-5-5--3-5-5-5--3-5-5-5--3-5-5-5--|
C|--3-5-5-5--3-5-5-5--3-5-5-5--3-5-5-5--|



Interlude:

D|-----------------------------------------------|
A|-----------------------------------------------|
F|-----------------------------------------------|
C|--0--5--8----3--7----0--5--8----3--7-----------|
G|--0--5--8----3--7----0--5--8----3--7-----------|
C|--0--5--8----3--7----0--5--8----3--7---/19~----|



Finally:

D|-------------|
A|-------------|
F|-------------|
C|-------------|
G|-------------|
C|--/12~-12~\--|

            
            
Suggest correction
Creating personal tab
Creating personal tab
You can edit any tab online and save it as your Personal.

You can edit, replace or remove any tab part or add personal notes – all changes will be seen only by you.

Personal tabs can be accessed anytime from any device, even offline.
Learn more »
Give kudos to tab author, rate the tab!
1 2 3 4 5
comments
print report bad tab
1 comment total.
0 reply
rezr 10 Dec 10, 2011 02:18 PM

Spot on, whoever voted 1 star is a moron.

guest
You may want to rate the tab now too:
select rating
Wanna post a correction for this tab? Suggest correction