Oops, an error
Loading. Please wait.
We have an official Mein Teil tab made by UG professional guitarists. Check out the tab »
×
7,309 views 6 this week
2 commentsread comments
1 2 3 4 5
x 5
add to favorites
×
Save as Personal and add changes to this tab that will be seen only by you. Learn more ›
×
You can save this tab as Personal to edit and correct it or add notes. All changes will be seen only by you. Learn more »
launch autoscroll
font size
0
reset
guitar tuner
edit
Autoscroll
slow
fast
+/-
esc
set tempo
stop
Author
Difficulty
Intro (bass starts straight away in some versions, in others at 0:19) 

F||--------------------------------|--------------------------------| 
C||--------------------------------|--------------------------------| 
G||--------------------------------|--------------------------------| 
C||--2-0-2--2-0-2-5-2-0-2--2-0-2-5-|--2-0-2--2-0-2-5-2-0-2--2-0-2-5-| x 3 

Then play 
                                                               
F||------------------------------|----------------------------------| 
C||------------------------------|----------------------------------| 
G||------------------------------|----------------------------------| 
C||--2-0-2--2-0-2--2-0-2--2-0-2--|--2-0-2--2-0-2--2-0-2--2-0-2------| 

Verse (distortion = ON) 

F||--------------------------------|--------------------------------| 
C||--------------------------------|--------------------------------| 
G||--------------------------------|--------------------------------| 
C||--2-0-2--2-0-2-5-2-0-2--2-0-2-5-|--2-0-2--2-0-2-5-2-0-2--2-0-2-5-| 

Chorus 

                                                       
F||--------------------------------|--------------------------------| 
C||--------------------------------|--------------------------------| 
G||--------------------------------|--------------------------------| 
C||--2-0-2--2-0-2-5-2-0-2--2-0-2-5-|--0--------3--------------------| 

Bridge 

F||----------------------------------| 
C||--2-2-2-2-2-2-2-2-2-2-2-2-2-2-2-2-| 
G||----------------------------------| 
C||--2-2-2-2-2-2-2-2-2-2-2-2-2-2-2-2-| 


                                                                       
F||------------------2-2-2-2-2-2-2-2-|----------------------------------| 
C||--3-3-3-3-3-3-3-3-----------------|--2-2-2-2-2-2-2-2-2-2-2-2-2-2-2-2-| 
G||------------------0-0-0-0-0-0-0-0-|----------------------------------| 
C||--3-3-3-3-3-3-3-3-----------------|--2-2-2-2-2-2-2-2-2-2-2-2-2-2-2-2-| 


                                                                       
F||----------------------------------|----------------------------------| 
C||--3-3-3-3-3-3-3-3-0-0-0-0-0-0-0-0-|--2-2-2-2-2-2-2-2-2-2-2-2-2-2-2-2-| 
G||----------------------------------|----------------------------------| 
C||--3-3-3-3-3-3-3-3-0-0-0-0-0-0-0-0-|--2-2-2-2-2-2-2-2-2-2-2-2-2-2-2-2-| 

Play Chorus till end. No bass in outro.  


            
            
Suggest correction
Creating personal tab
Creating personal tab
You can edit any tab online and save it as your Personal.

You can edit, replace or remove any tab part or add personal notes – all changes will be seen only by you.

Personal tabs can be accessed anytime from any device, even offline.
Learn more »
comments
print report bad tab
2 comments total.
0 reply
STeven on bass! 10 Apr 21, 2007 08:38 PM

Its good but it would be better if you transcribed it for drop-b tuning so its easier tuning and easier to make the octaves

0 reply
dvr555 10 Aug 17, 2008 07:06 PM

yes STeven on bass! but you need the low C you might as well play it on a five string it would be a little bit harder to play but this is an easy song

guest
You may want to rate the tab now too:
select rating
Wanna post a correction for this tab? Suggest correction