Oops, an error
Loading. Please wait.

Mein Teil Tab

version 2
version 2
71,086 views 120 this week
10 commentsread comments
1 2 3 4 5
x 19
add to favorites
launch autoscroll
font size
0
reset
how to read this tab
guitar tuner
Autoscroll
slow
fast
+/-
esc
set tempo
stop
Author
Rammstein - Mein Teil

Tabbed by Elvisz(elvisz@kornkids.com)

 Here's the tab for mein teil it's easy and killer!
 [Intro]
e|--------------------------------------|
B|--------------------------------------|
G|--------------------------------------|
D|--------------------------------------|
A|-h2-0-h2--2-0-h2-h5-h2-0-h2~--2-0-h2~-|
E|-h2-0-h2--2-0-h2-h5-h2-0-h2~--2-0-h2~-|

 [Fill 1]
e|----------------------------------------------------------------------|----|
B|----------------------------------------------------------------------|----|
G|----------------------------------------------------------------------|----|
D|----------------------------------------------------------------------|----|
A|-h2-0-h2--h2-0-h2--h2-0-h2--h2-0-h2--h2-0-h2--h2-0-h2--h2-0-h2-h2-0-h2|-2x-|
E|-h2-0-h2--h2-0-h2--h2-0-h2--h2-0-h2--h2-0-h2--h2-0-h2--h2-0-h2-h2-0-h2|-2x-|

 [Verse]
e|-----------------------------|
B|-----------------------------|
G|-----------------------------|
D|-----------------------------|
A|-----------------------------|
E|-2-0-2--2-0-2-5-2-0-2--2-0-2-|
  . . .  . . . . . . .  . . .   .p.m.

 [Pre-Chorus]
e|--------------------|--------------------|
B|--------------------|--------------------|
G|--------------------|--------------------|
D|--------------------|--------------------|
A|-h2-0-h2-h5-h2-0-h2-|-222222222222222222-|
E|-h2-0-h2-h5-h2-0-h2-|-222222222222222222-|
                       ..................  .p.m.

 [Chorus]
e|--------------------------------------|----------|
B|--------------------------------------|----------|
G|--------------------------------------|----------|
D|--------------------------------------|-0~~~3~~~-|
A|-h2-0-h2--2-0-h2-h5-h2-0-h2~--2-0-h2~-|-0~~~3~~~-|
E|-h2-0-h2--2-0-h2-h5-h2-0-h2~--2-0-h2~-|-0~~~3~~~-|

e|--------------------------------------|----------|
B|--------------------------------------|----------|
G|--------------------------------------|----------|
D|--------------------------------------|-3~~~0~~~-|
A|-h2-0-h2--2-0-h2-h5-h2-0-h2~--2-0-h2~-|-3~~~0~~~-|
E|-h2-0-h2--2-0-h2-h5-h2-0-h2~--2-0-h2~-|-3~~~0~~~-|

 [Verse]
e|-----------------------------|
B|-----------------------------|
G|-----------------------------|
D|-----------------------------|
A|-----------------------------|
E|-2-0-2--2-0-2-5-2-0-2--2-0-2-|
  . . .  . . . . . . .  . . .   .p.m.

 [Bridge 1]
e|-----------------------------------------------------------------------|
B|-----------------------------------------------------------------------|
G|-----------------------------------------------------------------------|
D|-----------------------------------------------------------------------|
A|-----------------------------------------------------------------------|
E|-2222222222222222-33333333-55555555-2222222222222222-33333333-00000000-|
  ................ ........ ........ ................ ........ ........  .p.m

 [Bridge 2]
e|-----------------------------------------------------------------------|
B|-----------------------------------------------------------------------|
G|-----------------------------------------------------------------------|
D|-----------------------------------------------------------------------|
A|-2222222222222222-33333333-55555555-2222222222222222-33333333-00000000-|
E|-2222222222222222-33333333-55555555-2222222222222222-33333333-00000000-|

 [Pre-Chorus]
e|--------------------|--------------------|
B|--------------------|--------------------|
G|--------------------|--------------------|
D|--------------------|--------------------|
A|-h2-0-h2-h5-h2-0-h2-|-222222222222222222-|
E|-h2-0-h2-h5-h2-0-h2-|-222222222222222222-|
                       ..................  .p.m.

 [Chorus]
e|--------------------------------------|----------|
B|--------------------------------------|----------|
G|--------------------------------------|----------|
D|--------------------------------------|-0~~~3~~~-|
A|-h2-0-h2--2-0-h2-h5-h2-0-h2~--2-0-h2~-|-0~~~3~~~-|
E|-h2-0-h2--2-0-h2-h5-h2-0-h2~--2-0-h2~-|-0~~~3~~~-|

e|--------------------------------------|----------|
B|--------------------------------------|----------|
G|--------------------------------------|----------|
D|--------------------------------------|-3~~~0~~~-|
A|-h2-0-h2--2-0-h2-h5-h2-0-h2~--2-0-h2~-|-3~~~0~~~-|
E|-h2-0-h2--2-0-h2-h5-h2-0-h2~--2-0-h2~-|-3~~~0~~~-|

 [Bridge 3]
e|--------------------------------------|
B|--------------------------------------|
G|--------------------------------------|
D|--------------------------------------|
A|-h2-0-h2--2-0-h2-h5-h2-0-h2~--2-0-h2~-|
E|-h2-0-h2--2-0-h2-h5-h2-0-h2~--2-0-h2~-|

 [Chorus]
e|--------------------------------------|----------|
B|--------------------------------------|----------|
G|--------------------------------------|----------|
D|--------------------------------------|-0~~~3~~~-|
A|-h2-0-h2--2-0-h2-h5-h2-0-h2~--2-0-h2~-|-0~~~3~~~-|
E|-h2-0-h2--2-0-h2-h5-h2-0-h2~--2-0-h2~-|-0~~~3~~~-|

e|--------------------------------------|----------|
B|--------------------------------------|----------|
G|--------------------------------------|----------|
D|--------------------------------------|-3~~~0~~~-|
A|-h2-0-h2--2-0-h2-h5-h2-0-h2~--2-0-h2~-|-3~~~0~~~-|
E|-h2-0-h2--2-0-h2-h5-h2-0-h2~--2-0-h2~-|-3~~~0~~~-|



************************************

| h  Hammer-on
| ~  Vibrato
| x  Dead note
| .  Staccato

************************************
Suggest correction
comments
print report bad tab
10 comments total. Showing first comments.
+3 reply
Negative-creep 20 Sep 21, 2004 08:00 PM

the 5's in the bridge must be 7's

+5 reply
Seemann 10 Sep 30, 2004 08:00 PM

Remember it's played in dropped C

+2 reply
TaterTotDaddy 10 Jan 07, 2006 04:55 PM

no its in drop c

guest
You may want to rate the tab now too:
select rating
Wanna post a correction for this tab? Suggest correction