Oops, an error
Loading. Please wait.

Morgenstern tab

version 1
version 1

Whole song

Interactive

24,572 views 21 this week
4 commentsread comments
1 2 3 4 5
x 14
add to favorites
×
Save as Personal and add changes to this tab that will be seen only by you. Learn more ›
×
You can save this tab as Personal to edit and correct it or add notes. All changes will be seen only by you. Learn more »
launch autoscroll
font size
0
reset
how to read this tab
guitar tuner
backing track
0:00
0:00
edit
Autoscroll
slow
fast
+/-
esc
set tempo
stop
Author
Morgenstern - Rammstein
Tabbed by: Astrozombie138
Tuning: Drop D whole step down(CGCFAD)

[intro/verse]
D|---------------------------------------------------------------------------|
A|---------------------------------------------------------------------------|
F|---------------------------------------------------------------------------|
C|---------------------------------------------------------------------------|
G|--3-0-----3-0-3-0----3-0-------3-0-3-0-0-0---------------------------------|
C|--3-0-----3-0-3-0----3-0-------3-0-3-0-0-0---------------------------------|[x6]
(PM). .     . . . .    . .       . . . . . .

[pre-chorus]
D|---------------------------------------------------------------------------|
A|---------------------------------------------------------------------------|
F|--6-6-6-6-6-6-6-6-6-6-6-6-6--10-10-10-10-10-10-10-10-10-10-10-10-10--------|
C|--x-x-x-x-x-x-x-x-x-x-x-x-x--x--x--x--x--x--x--x--x--x--x--x--x--x---------|
G|--4-4-4-4-4-4-4-4-4-4-4-4-4--8--8--8--8--8--8--8--8--8--8--8--8--8---------|
C|---------------------------------------------------------------------------|

D|---------------------------------------------------------------------------|
A|---------------------------------------------------------------------------|
F|---------------------------------------------------------------------------|
C|--12-12-12-12-12-12-12-12-11-11-11-11-11-11-11-11--------------------------|
G|--12-12-12-12-12-12-12-12-11-11-11-11-11-11-11-11--------------------------|
C|--12-12-12-12-12-12-12-12-11-11-11-11-11-11-11-11--------------------------|[x2]

D|---------------------------------------------------------------------------|
A|---------------------------------------------------------------------------|
F|---------------------------------------------------------------------------|
C|--7-7-7-7-7-7-7-7-7-7-7-7-7-7-7-7--8-8-8-8-8-8-8-8-8-8-8-8-8-8-8-8-8-------|
G|--7-7-7-7-7-7-7-7-7-7-7-7-7-7-7-7--8-8-8-8-8-8-8-8-8-8-8-8-8-8-8-8-8-------|
C|--7-7-7-7-7-7-7-7-7-7-7-7-7-7-7-7--8-8-8-8-8-8-8-8-8-8-8-8-8-8-8-8-8-------|

D|---------------------------------------------------------------------------|
A|---------------------------------------------------------------------------|
F|---------------------------------------------------------------------------|
C|--5-5-5-5-5-5-5-5-5-5-5-5-5-5-5-5------------------------------------------|
G|--5-5-5-5-5-5-5-5-5-5-5-5-5-5-5-5------------------------------------------|
C|--5-5-5-5-5-5-5-5-5-5-5-5-5-5-5-5------------------------------------------|


D|---------------------------------------------------------------------------|
A|---------------------------------------------------------------------------|
F|---------------------------------------------------------------------------|
C|--8-8-8-8-8-8-8-8--10-10-10-10-10-10-10-10---------------------------------|
G|--8-8-8-8-8-8-8-8--10-10-10-10-10-10-10-10---------------------------------|
C|--8-8-8-8-8-8-8-8--10-10-10-10-10-10-10-10---------------------------------|

[intro/verse]
D|---------------------------------------------------------------------------|
A|---------------------------------------------------------------------------|
F|---------------------------------------------------------------------------|
C|---------------------------------------------------------------------------|
G|--3-0-----3-0-3-0----3-0-------3-0-3-0-0-0---------------------------------|
C|--3-0-----3-0-3-0----3-0-------3-0-3-0-0-0---------------------------------|[x6]
(PM). .     . . . .    . .       . . . . . .

D|---------------------------------------------------------------------------|
A|---------------------------------------------------------------------------|
F|---------------------------------------------------------------------------|
C|--12-12-12-12-12-12-12-12-11-11-11-11-11-11-11-11--------------------------|
G|--12-12-12-12-12-12-12-12-11-11-11-11-11-11-11-11--------------------------|
C|--12-12-12-12-12-12-12-12-11-11-11-11-11-11-11-11--------------------------|[x2]

D|---------------------------------------------------------------------------|
A|---------------------------------------------------------------------------|
F|---------------------------------------------------------------------------|
C|--8-8-8-8-8-8-8-8--10-10-10-10-10-10-10-10---------------------------------|
G|--8-8-8-8-8-8-8-8--10-10-10-10-10-10-10-10---------------------------------|
C|--8-8-8-8-8-8-8-8--10-10-10-10-10-10-10-10---------------------------------|

[post-chorus]
D|---------------------------------------------------------------------------|
A|---------------------------------------------------------------------------|
F|---------------------------------------------------------------------------|
C|---------------------------------------------------------------------------|
G|--3p0-0-0-0-0-0-0-0-0-3p0-3p0-0-0-3p0-0-0-0-0-0-0-0-0-3p0-0-0--------------|
C|--3p0-0-0-0-0-0-0-0-0-3p0-3p0-0-0-3p0-0-0-0-0-0-0-0-0-3p0-0-0--------------|[x4]
(PM)    . . . . . . . .         . .     . . . . . . . .     . .

D|---------------------------------------------------------------------------|
A|---------------------------------------------------------------------------|
F|---------------------------------------------------------------------------|
C|--8-8-8-8-8-8-8-8--10-10-10-10-10-10-10-10---------------------------------|
G|--8-8-8-8-8-8-8-8--10-10-10-10-10-10-10-10---------------------------------|
C|--8-8-8-8-8-8-8-8--10-10-10-10-10-10-10-10---------------------------------|

D|---------------------------------------------------------------------------|
A|---------------------------------------------------------------------------|
F|---------------------------------------------------------------------------|
C|--12-12-12-12-12-12-12-12-11-11-11-11-11-11-11-11--------------------------|
G|--12-12-12-12-12-12-12-12-11-11-11-11-11-11-11-11--------------------------|
C|--12-12-12-12-12-12-12-12-11-11-11-11-11-11-11-11--------------------------|[x2]


D|---------------------------------------------------------------------------|
A|---------------------------------------------------------------------------|
F|---------------------------------------------------------------------------|
C|--8-8-8-8-8-8-8-8--10-10-10-10-10-10-10-10---------------------------------|
G|--8-8-8-8-8-8-8-8--10-10-10-10-10-10-10-10---------------------------------|
C|--8-8-8-8-8-8-8-8--10-10-10-10-10-10-10-10---------------------------------|

[outro]
D|---------------------------------------------------------------------------|
A|---------------------------------------------------------------------------|
F|---------------------------------------------------------------------------|
C|---------------------------------------------------------------------------|
G|--3-0----3-0-3-0-0-0-3-0---------------------------------------------------|
C|--3-0----3-0-3-0-0-0-3-0---------------------------------------------------|
(PM). .    . . . . . . . .


************************************

| PM  Palm mute
| x   Dead note
| p   Pull-off

************************************

            
            
Suggest correction
Creating personal tab
Creating personal tab
You can edit any tab online and save it as your Personal.

You can edit, replace or remove any tab part or add personal notes – all changes will be seen only by you.

Personal tabs can be accessed anytime from any device, even offline.
Learn more »
comments
print report bad tab
4 comments total. Showing first comments.
0 reply
sTyleFree 52 May 05, 2006 09:36 AM

Deserves 5 stars.

0 reply
MotoGP 802 May 31, 2006 06:52 AM

Jupp the best off the best R+ tab i ever seen god work man! :) :D ;)

0 reply
MotoGP 802 May 31, 2006 06:52 AM

good

guest
You may want to rate the tab now too:
select rating
Wanna post a correction for this tab? Suggest correction