Oops, an error
Loading. Please wait.

Moskau Tab

version 1
version 1

Whole song

Interactive

20,469 views 24 this week
2 commentsread comments
1 2 3 4 5
x 9
add to favorites
launch autoscroll
font size
0
reset
how to read this tab
guitar tuner
×
Best way to learn
"Moskau"
Autoscroll
slow
fast
+/-
esc
set tempo
stop
Author
Tuning
  follow
D A D G B E
(Drop D tuning)

[Intro]
(Overdrive)
(0:00)
e|--------------------------|
B|--------------------------|
G|--------------------------|
D|--------------------------|
A|--------------------------|
D|--6--8--2---6--8--2--9-8--|

[Riff 1a]
(0:13)
e|--------------------------|
B|--------------------------|
G|--------------------------|
D|--------------------------|
A|--6--8--2---6--8--2--9-8--|
D|--6--8--2---6--8--2--9-8--|

[Riff 1b]
(0:26)
e|---------------------|
B|---------------------|
G|---------------------|
D|---------------------|
A|--6--8--2---6--4--2--|
D|--6--8--2---6--4--2--|

[Riff 1a]
(1:05 - 1:18)
e|--------------------------|
B|--------------------------|
G|--------------------------|
D|--------------------------|
A|--6--8--2---6--8--2--9-8--|
D|--6--8--2---6--8--2--9-8--|

[Riff 1a]
(1:44)
e|--------------------------|
B|--------------------------|
G|--------------------------|
D|--------------------------|
A|--6--8--2---6--8--2--9-8--|
D|--6--8--2---6--8--2--9-8--|
        
[Riff 1b]
(1:57)
e|---------------------|
B|---------------------|
G|---------------------|
D|---------------------|
A|--6--8--2---6--4--2--|
D|--6--8--2---6--4--2--|

[Solo]
(2:10)
e|--7----7-6--4-----4--|--4-6--|--7----7-6--4------|
B|----4---------7------|-------|----4---------7----|
G|----------------4----|-------|----------------4--|
D|---------------------|-------|-------------------|(x2)
A|---------------------|-------|-------------------|
D|---------------------|-------|-------------------|

(Backing riffs 1a and 1b)
[Riff 1a]
e|--------------------------|
B|--------------------------|
G|--------------------------|
D|--------------------------|
A|--6--8--2---6--8--2--9-8--|
D|--6--8--2---6--8--2--9-8--|
        
[Riff 1b]
e|---------------------|
B|---------------------|
G|---------------------|
D|---------------------|
A|--6--8--2---6--4--2--|
D|--6--8--2---6--4--2--|

[Riff 2]
(2:36)
e|----------------|
B|----------------|
G|----------------|
D|--7--12--11--6--|
A|--7--12--11--6--|
D|--7--12--11--6--|

[Riff 1c]
(3:19)
(Guitar 1)
e|----------------------------|
B|----------------------------|
G|----------------------------|
D|-----------6-----------9-8--|
A|--6--8--2--4--6--8--2--7-6--|
D|--6--8--2-----6--8--2-------|

(Guitar 2)
e|-----------------------------|
B|-----------------------------|
G|-----------------------------|
D|------------------------9-8--|
A|--6--8--9--11--6--8--9--7-6--|
D|--6--8--9--11--6--8--9-------|

[Riff 1d]
(3:32)
(Guitar 1)
e|-------------------------|
B|-------------------------|
G|-------------------------|
D|-----------6-8-----------|
A|--6--8--2--4-6--6--4--2--|
D|--6--8--2-------6--4--2--|

(Guitar 2)
e|-------------------------|
B|-------------------------|
G|-------------------------|
D|-----------6-8-----------|
A|--6--8--9--4-6--6--4--2--|
D|--6--8--9-------6--4--2--|

[Riff 1c]
(Guitar 1)
e|----------------------------|
B|----------------------------|
G|----------------------------|
D|-----------6-----------9-8--|
A|--6--8--2--4--6--8--2--7-6--|
D|--6--8--2-----6--8--2-------|

[Riff 1d]
(Guitar 1)
e|-------------------------|
B|-------------------------|
G|-------------------------|
D|-----------6-8-----------|
A|--6--8--2--4-6--6--4--2--|
D|--6--8--2-------6--4--2--|
Suggest correction
comments
print report bad tab
2 comments total.
0 reply
sTyleFree 52 May 05, 2006 09:10 AM

The album is in drop-c :/

0 reply
SonneLIFAD 10 Oct 04, 2010 02:09 AM

Riff 2
2:36
e|----------------|
B|----------------|
G|----------------|
D|--7--12--11--6--|
A|--7--12--11--6--|
D|--7--12--11--6--|

The tone is too high, if you play this in DADGBe it is :
Riff 2
2:36
e|----------------|
B|----------------|
G|----------------|
D|--0--7--6--1--|
A|--0--7--6--1--|
D|--0--7--6--1--|

guest
You may want to rate the tab now too:
select rating
Wanna post a correction for this tab? Suggest correction