Oops, an error
Loading. Please wait.

Mutter Tab

version 2
version 2
21,755 views 15 this week
3 commentsread comments
1 2 3 4 5
accurate
x 11
add to favorites
launch autoscroll
font size
0
reset
how to read this tab
guitar tuner
Tab Pro tools
  • play this tab
  • loop segment
  • change instrument
  • show fretboard
  • metronome
×
Best way to learn
"Mutter"
Autoscroll
slow
fast
+/-
esc
set tempo
stop
Contributor
Difficulty
advanced
Artist:           Rammstein
Album:            Mutter (Mother)
Transcribed By:   Engel1

Well here it is...Give it 5*


Song:     Main Herz Brennt
Tuning:   Drop D

Main Riff: [Distortion]
|--------------------------------------|
|--------------------------------------|
|--------------------------------------|
|---0000-0000-00000000-0000-00000000---|
|---0x0x-0x0x-0x0x0x0x-0x0x-0x0x0x0x---|
|---0000-0000-00000000-0000-00000000---|

|----------------------------------|
|----------------------------------|
|----------------------------------|
|---0000-00000000-0000000-xx-3-4---|
|---0x0x-0x0x0x0x-0x0x0x0-xx-3-4---|
|---0000-00000000-0000000-xx-3-4---|

Bridge: [Acoustic]
|---------------------------|
|---------------------------|
|---------------------------|
|---1h3-3--1h3-3--1h3-333---|
|---1h3-3--1h3-3--1h3-3x3---|
|---1h3-3--1h3-3--1h3-333---|

Chorus: (Distortion)
|-------------------------|-------------------------|
|-------------------------|-------------------------|
|---7-----------3-----5---|---7---------------------|
|---7-----5-----3-----5---|---7-----5-----3-----2---|
|---5-----5-----1-----3---|---5-----5-----3-----2---|
|---------5---------------|---------5-----3-----2---|

Fill:
|-------|
|-------|
|-------|
|---7---|
|---7---|
|---7---|

Solo: [Wah]
|------------------------------|------------------------------|
|------------------------------|------------------------------|
|---22-2\3-33-3\5-55-5\7-777---|---22-2\3-33-3\5-55-5\7-777---|
|------------------------------|------------------------------|
|------------------------------|------------------------------|
|------------------------------|------------------------------|

|-----------------------------------------------------|
|-----------------------------------------------------|
|---22-2\3-33-3\5-55-5\7-777--10~-12/10-10/8-8/7-7~---|
|-----------------------------------------------------|
|-----------------------------------------------------|
|-----------------------------------------------------|

Song Structure:
Main Riff:___2x
Fill:___8x
Chorus:___1x
Main Riff:___1x
Fill:___8x
Chorus:___1x
Main Riff:___2x
Fill:___1x
Solo:___3x
Main Riff:___2x



Song:     Links 2 3 4
Tuning:   Standard

Main Riff:                  3x
|-----------------------------|----------------------------|
|-----------------------------|----------------------------|
|-----------------------------|----------------------------|
|-----2----2----2--xx-----8---|-----2----2----2-xxxx-888---|
|-----2----2----2--xx-3\5-8---|-----2----2----2-xxxx-888---|
|---000-0000-0000--xx-3\5-6---|---000-0000-0000-xxxx-666---|
    ..  ...  ...                  ..  ...  ...                      
                           2x
|----------------------------|
|----------------------------|
|----------------------------|
|-----2----2----2-xx-----8---|
|-----2----2----2-xx-5\7-8---|
|---000-0000-0000-xx-3\5-6---|
    ..  ...  ...                   

Riff 2:
|-----------------------------|                          
|-----------------------------|
|-----------------------------|
|-----2----2----2--xx-----8---|
|-----2----2----2--xx-3\5-8---|
|---000-0000-0000--xx-3\5-6---|
    ..  ...  ...

Chorus:
|-----------------------|
|-----------------------|
|-----------------------|
|-------------------8---|
|---2---5---7--8888-8---|
|---0---3---5--6666-6---|
               ....                     

Clean Guitar:
|-------------------------|                          
|-------------------------|
|-------------------------|
|-----2---2---2-------8---|
|-----2---2---2---3\5-8---|
|---000-000-000---3\5-6---|
    ..  ..  ..

Solo: [Wah]
|----------7-------------7---------------|
|---7-8-10---10-8-7-8-10---10-8-7-8------|
|-----------------------------------9^---|
|----------------------------------------|
|----------------------------------------|
|----------------------------------------|

|----------7-------------7------------------|
|---7-8-10---10-8-7-8-10---10-8-7-8--\12^---|
|-------------------------------------------|
|-------------------------------------------|
|-------------------------------------------|
|-------------------------------------------|

Outro:
|------------------------------|
|------------------------------|
|------------------------------|
|---2-----5-----7----------8---|
|---2-----5-----7-----8888-8---|
|---0-----3-----5-----6666-6---|
                      ....

Song Structure:
Main Riff:___2x
Riff 2:___8x
Chorus:___2x
Clean Guitar:___9x
Riff 2:___4x
Solo:___2x
Outro:___4x



Song:     Sonne
Tuning:   Drop D

Main Riff:
|---------------------------------------------------------------|
|---------------------------------------------------------------|
|---------------------------------------------------------------|
|---0-0-6-0-6-5-0---0-6-0-6-0---0-0-6-0-6-5-0---0-6-0-6-5-5-5---|
|---0-0-6-0-6-5-0---0-6-0-6-0---0-0-6-0-6-5-0---0-6-0-6-5-5-5---|
|---0-0-6-0-6-5-0---0-6-0-6-0---0-0-6-0-6-5-0---0-6-0-6-5-5-5---|

Riff 2:
|-------------------------------|
|-------------------------------|
|-------------------------------|
|---0-0-6-0-6-5-0---0-6-0-6-0---|
|---0-0-6-0-6-5-0---0-6-0-6-0---|
|---0-0-6-0-6-5-0---0-6-0-6-0---|

Chorus:

Richard                         Paul    
|------------------------|      |---------------------|
|------------------------|      |---------------------|
|------------------------|      |---4-4---------5-5---|
|---4-4-\9-9-/7-7-/5-5---|      |---4-4-2-2-0-0-5-5---|
|---2-2-\7-7-/5-5-/3-3---|      |---2-2-2-2-0-0-3-3---|
|------------------------|      |-------2-2-0-0-------|

Richard                         Paul    
|------------------------|      |---------------------|
|------------------------|      |---------------------|
|------------------------|      |---4-4---------5-5---|
|---4-4-\9-9-/7-7-/5-5---|      |---4-4-2-2-0-0-5-5---|
|---2-2-\7-7-/5-5-/3-3---|      |---2-2-2-2-0-0-3-3---|
|------------------------|      |-------2-2-0-0-------|

Richard                         Paul
|---------------------------|   |---------------------|
|---------------------------|   |---------------------|
|---------------------------|   |-------4-4-----------|
|---9-9-11-11-12-12-11-11---|   |---2-2-4-4-5-5-4-4---|
|---7-7-9--9--10-10-9--9----|   |---2-2-2-2-5-5-4-4---|
|---------------------------|   |---2-2-----5-5-4-4---|

Richard                         Paul    
|------------------------|      |---------------------|
|------------------------|      |---------------------|
|------------------------|      |---4-4---------5-5---|
|---4-4-\9-9-/7-7-/5-5---|      |---4-4-2-2-0-0-5-5---|
|---2-2-\7-7-/5-5-/3-3---|      |---2-2-2-2-0-0-3-3---|
|------------------------|      |-------2-2-0-0-------|

Song Structure:
                    
Main Riff:___2x     
Riff 2:___3x        
Chorus:___1x
Main Riff:___1x
Riff 2:___2x
Chorus:___6x



Song:     Ich Will
Tuning:   Drop D

Main Riff:         3x
|--------------------|-----------------------|
|--------------------|-----------------------|
|--------------------|-----------------------|
|----0-0---0--0--0---|----0-0---555-333-00---|
|---55555-55555555---|---55555--555-333-00---|
|---00000-00000000---|---00000--555-333-00---|

Riff:        4x           4x
|---------------|-----------|
|---------------|-----------|
|---------------|-----------|
|---------------|----0-0----|
|-----5---5-----|---55555---|
|---0---0---0---|---00000---|

Chorus:
|------------------------|---------------------------|
|------------------------|---------------------------|
|------------------------|---------------------------|
|---0-------888-555-77---|---0-------888-101010-77---|
|---0-------888-555-77---|---0-------888-101010-77---|
|---0-------888-555-77---|---0-------888-101010-77---|

|------------------------|---------------------------|
|------------------------|---------------------------|
|------------------------|---------------------------|
|---0-------888-555-77---|---0-------888-101010-77---|
|---0-------888-555-77---|---0-------888-101010-77---|
|---0-------888-555-77---|---0-------888-101010-77---|

|------------------------|---------------------------|
|------------------------|---------------------------|
|------------------------|---------------------------|
|---0-------888-555-77---|---0-------888-101010-77---|
|---0-------888-555-77---|---0-------888-101010-77---|
|---0-------888-555-77---|---0-------888-101010-77---|

|------------------------|---------------------------|
|------------------------|---------------------------|
|------------------------|---------------------------|
|---0-------888-555-77---|---0-------888-101010-77---|
|---0-------888-555-77---|---0-------888-101010-77---|
|---0-------888-555-77---|---0-------888-101010-77---|

Clean Guitar:
            4x            3x                       4x            4x
|-------------|-------------|----------|-------------|-------------|
|-------------|-------------|----------|-------------|-------------|
|-------------|-------------|----------|-------------|-------------|
|-------0-----|-------8-----|---8--7---|-------5-----|-------7-----|
|-----0---0---|-----8---8---|---8--7---|-----5---5---|-----7---7---|
|---0---------|---8---------|---8--7---|---5---------|---7---------|

Outro:
|--------------------|
|--------------------|
|--------------------|
|---77777-77777777---|
|---55555-55555555---|
|---00000-00000000---|

Song Structure:
Main Riff:___2x
Riff 2:___1x
Chorus:___1x
Main Riff:___1x
Clean Guitar:___2x
Chorus:___1x
Outro:___2x



Song:     Feuer Frei!
Tuning:   Drop D

Intro:
|-------|
|-------|
|---3---|
|---3---|
|---1---|
|-------|

Riff 1: [Wah]
           4x                   7x            2x
|------------|-----------------|---|------------|------------|
|------------|-----------------|---|------------|------------|
|------------|-----------------|---|------------|------------|
|------------|---12-12-12-12---|---|------------|--------9---|
|---9h10p9---|---12-12-12-12---|---|---9h10p9---|---9h10-9---|
|---9h10p9---|---12-12-12-12---|---|---9h10p9---|---9h10-9---|

Riff 2:   4x
|-----------|----------|
|-----------|----------|
|-----------|----------|
|---5h6p5---|---8888---|
|---5h6p5---|---8x8x---|
|---5h6p5---|---8888---|

Bridge:
|----------|
|----------|
|----------|
|---8888---|
|---9x9x---|
|---8888---|

Fill:
|------------------------|
|------------------------|
|------------------------|
|------------------------|
|---88888888-5555-3333---|
|---88888888-5555-3333---|

Riff 3:    4x
|------------|----------|
|------------|----------|
|------------|----------|
|------------|----------|
|---9h10p9---|---8888---|
|---9h10p9---|---8888---|

Song Structure:
Intro:___1x
Riff 1:___8x
Bridge:___3x
Riff 1:___2x
Fill:___1x
Riff 1:___3x
Fill:___1x
Riff 1:___4x
Riff 3:___1x
Riff 2:___2x
Fill:___1x
Riff 2:___3x
Fill:___1x
Riff 2:___3x
Fill:___3x


Song:     Mutter
Tuning:   Standard

Clean Guitar:                               2x
|-------------------7-------|-----------------|
|---------------8-------8---|-----------7-----|
|-----------9---------------|---------8---8---|
|-------9-------------------|-------9---------|
|---7-----------------------|-----9-----------|
|---------------------------|---7-------------|

Chorus: Richard                                    Paul
|-----------------------------------------------|--|----------------------|
|-----------------------------------------------|--|----------------------|
|---8\9---11-12-14\16--14-16-14-11---11-12-11---|--|----------------------|
|-----------------------------------------------|--|---2-----5--\7----0---|
|-----------------------------------------------|--|---2-----5--\7----0---|
|-----------------------------------------------|--|---2-----5--\7----0---|

Bridge:
|--------------------------|
|--------------------------|
|--------------------------|
|---9---7----------5---7---|
|---7---5---9---7--3---5---|
|-----------7---5----------|

Solo: [Wah]
|-------------------------------------------------|
|-------------------------------------------------|
|---10\11---13-14-16\18--16-18-16-13---14-14-13---|
|-------------------------------------------------|
|-------------------------------------------------|
|-------------------------------------------------|

Rythem Behind Solo:
|---------------------|
|---------------------|
|---------------------|
|---4----7--\9----2---|
|---4----7--\9----2---|
|---4----7--\9----2---|

Ending Chord:
|---------|
|---------|
|---------|
|---(9)---|
|---(9)---|
|---(9)---|

Song Structure:

Clean Guitar:___6x
Chorus:___2x
Clean Guitar:___4x
Chorus:___4x
Chorus:___1x
Solo:___4x
Bridge:___1x
Solo:___4x
Ending Chord:___1x


Song:     Speiluhr
Tuning:   Drop D

Intro:
|-------|
|-------|
|-------|
|---3---|
|---3---|
|---3---|

Main Riff:
|-------------------------------------------------------------|
|-------------------------------------------------------------|
|-------------------------------------------------------------|
|---3-00-3-00-3-0-3-00-3-00-3-00-3-00-3-00-3-0-3-00-3-0-666---|
|---3-00-3-00-3-0-3-00-3-00-3-xx-3-00-3-00-3-0-3-00-3-0-666---|
|---3-00-3-00-3-0-3-00-3-00-3-00-3-00-3-00-3-0-3-00-3-0-666---|

Chorus:        15x     15x     14x      3x     8x       8x
|---------|-------|-------|-------|-------|-------|-------|
|---------|-------|-------|-------|-------|-------|-------|
|---------|-------|-------|-------|-------|-------|-------|
|---666---|---7---|---5---|---3---|---5---|---3---|---7---|
|---6x6---|---5---|---3---|---1---|---3---|---3---|---7---|
|---666---|-------|-------|-------|-------|---3---|---7---|

Clean Guitar
|-------------------------------------------------------------|
|-------------------------------------------------------------|
|-------------------------------------------------------------|
|---3-00-3-00-3-0-3-00-3-00-3-xx-3-00-3-00-3-0-3-00-3-0-666---|
|---3-00-3-00-3-0-3-00-3-00-3-xx-3-00-3-00-3-0-3-00-3-0-6x6---|
|---3-00-3-00-3-0-3-00-3-00-3-xx-3-00-3-00-3-0-3-00-3-0-666---|

|---------------------------------------------------|
|---------------------------------------------------|
|---------------------------------------------------|
|---3-00-3-00-3-0-3-00-3-00-3-xx-3-00-3-00-33-666---|
|---3-00-3-00-3-0-3-00-3-00-3-xx-3-00-3-00-33-6x6---|
|---3-00-3-00-3-0-3-00-3-00-3-xx-3-00-3-00-33-666---|

Solo: [Wah]
     13x               13x                 8x      5x
|-------|---------|-------|----------|-------|-------|---------|
|-------|---------|-------|----------|-------|-------|---------|
|-------|---------|-------|----------|---2---|-------|---000---|
|---0---|---333---|---1---|------0---|-------|---3---|---------|
|-------|---------|-------|---33-----|-------|-------|---------|
|-------|---------|-------|----------|-------|-------|---------|
      8x      8x   
|-------|-------|
|-------|-------|
|---0---|-------|
|-------|---7---|
|-------|-------|
|-------|-------|

Song Structure:
Intro:___1x
Main Riff:___3x
Chorus:___3x
Main Riff:___1x
Clean Guitar:___2x
Chorus:___3x
Solo:___1x
Chorus:___3x


Song:     Zwitter
Tuning:   Drop D

Intro:                    
|---------------------------|
|---------------------------|
|---------------------------|
|---------------------------|
|---------------------------|
|---000000-5\3-0000-0h1-1---|
[************************]

Main Riff:                
|---------------------------|
|---------------------------|
|---------------------------|
|---000000-5\3-0000-0h1-1---|
|---000000-5\3-0000-0h1-1---|
|---000000-5\3-0000-0h1-1---|
    ......     ....

Bridge:                   3x
|---------------------------|----------------|
|---------------------------|----------------|
|---------------------------|----------------|
|---------------------------|----------------|
|---------------------------|----------------|
|---000000-5\3-0000-0h1-1---|---000000-5\3---|
[*****************************************]

Chorus:
|--------------------------------------------|
|--------------------------------------------|
|--------------------------------------------|
|---88888888-55555555-333333333333-----1-3---|
|---66666666-33333333-111111111111-1-3-------|
|--------------------------------------------|

|----------------------------------------|
|----------------------------------------|
|---88888888-55555555--------------------|
|---xxxxxxxx-xxxxxxxx-5555555555555555---|
|---66666666-33333333-xxxxxxxxxxxxxxxx---|
|---------------------5555555555555555---|

Solo: [Wah]
|--------------------------------------------|
|--------------------------------------------|
|--------------------------------------------|
|--------------------------------------------|
|---66666666-33333333-111111111111-1h3p1h3---|
|--------------------------------------------|

|----------------------------------------|
|----------------------------------------|
|----------------------------------------|
|----------------------------------------|
|---66666666-33333333--------------------|
|---------------------5555555555555555---|

Outro:
|---------------------------|
|---------------------------|
|---------------------------|
|---000000-5\3-0000-0h1-1---|
|---000000-5\3-0000-0h1-1---|
|---000000-5\3-0000-0h1-1---|


Song Structure:         Notation:
Intro:___4x             * = Strum Between The Last Puck-up a
Main Riff:___8x         And The Bridge.
Bridge:___1x
Main Riff:___4x
Bridge:___1x
Main Riff:___4x
Chorus:___2x
Bridge:___1x
Main Riff:___4x
Chorus:___2x
Solo:___1x
Outro:___Played Until Song Fades Out.


Song:     Rein Raus
Tuning:   Drop D

Intro:
|-----------|
|-----------|
|-----------|
|---66-66---|
|---xx-xx---|
|---66-66---|

Main Riff:
|-------------------------------------|
|-------------------------------------|
|-------------------------------------|
|---3----2----3-5---3----2------3-5---|
|---3----2----3-5---3----2------3-5---|
|---3-22-2-22-3-5---3-22-2-2222-3-5---|
      ..   ..         ..   ....

|----------------------------------|
|----------------------------------|
|----------------------------------|
|---3----2----3-5---3----2---666---|
|---3----2----3-5---3----2---xxx---|
|---3-22-2-22-3-5---3-22-2-2-666---|
      ..   ..         ..   .

Riff 2:
|----------------------------------------------|
|----------------------------------------------|
|----------------------------------------------|
|---1----0---1----0---1----0----1-3---1----0---|
|---1----0---1----0---1----0----1-3---1----0---|
|---1-00-0---1-00-0---1-00-0-00-1-3---1-00-0---|
      ..       ..       ..   ..         ..

Riff 3:
|----------------------------------------------------------------|
|----------------------------------------------------------------|
|----------------------------------------------------------------|
|---1----0----1-3--1----0----1-3--1----0----1-3--1----0----1-3---|
|---1----0----1-3--1----0----1-3--1----0----1-3--1----0----1-3---|
|---1-00-0-00-1-3--1-00-0-00-1-3--1-00-0-00-1-3--1-00-0-00-1-3---|

Chorus:
|-------------------------------|-----------------------| After you play the
|-------------------------------|-----------------------| Chorus part 2x 
|-------------------------------|----------------------*| play the second 
|---7----5---10----9----10-12---|---10----9----10-12---*| part with the "*"
|---7----5---10----9----10-12---|---10----9----10-12----| at the end of it 
|---7----5---10-99-9-99-10-12---|---10-99-9-99-10-12----| 2 more times
                ..   ..                ..   ..

Pre-Solo: Gradually push Wah Pedal up
|------------------------------------------------------|
|------------------------------------------------------|
|-----------------------------------------------------*|
|---13-13-13-13-13-13-13-13-13-13-13-13-13-13-13-13---*|
|---11-11-11-11-11-11-11-11-11-11-11-11-11-11-11-11----|
|------------------------------------------------------|

Solo: Played with Wah
|----------------------------------------------------|
|----------------------------------------------------|
|----------------------------------------------------|
|---13-12-12--13-12-12--13-12--13-12--13-12--10-10---|
|---11-10-10--11-10-10--11-10--11-10--11-10--8--6----|
|----------------------------------------------------|

|--------------------------------------------------|
|--------------------------------------------------|
|-------------------------------------------------*|
|---13-12-12--13-12-12--13-12--13-12--13-12\17~---*|
|---11-10-10--11-10-10--11-10--11-10--11-10\15~----|
|--------------------------------------------------|

Riff 4:
|-------------------|
|-------------------|
|-------------------|
|---6----5----6-8---|
|---6----5----6-8---|
|---6-55-5-55-6-8---|
      ..   ..

Song Structure               Notation:
Intro:___1x                  . = Palm Mute
Main Riff:___2x              \ = Slide down Fret board
Riff 2:___2x                 / = Slide up Fret board
Main Riff:___2x              * = Repeat last Bar
Riff 2:___1x                 ~ = Let Note ring
Riff 3:___1x
Main Riff:___2x
Chorus:___2x
Pre-Solo:___1x
Solo:___2x
Riff 4:___8x
Main Riff:___2x


Song:     Adios
Tuning:   Drop D

Intro: [Clean Guitar] Paul                        2x
|---------------------------------------------------|
|---------------------------------------------------|
|------------10-10-10-10\12-12-12-7--7777-----------|
|---88888888-10-10-10-10\12-12-12-7--7777-7/5-5/4---|
|---8x8x8x8x--8--8--8--8\10-10-10-5--5555-5/3-3/2---|
|---88888888----------------------------------------| 

Intro: Richard
|-------------------------------------------------|
|-------------------------------------------------|
|-------------------------------------------------|
|---------------10--------12----------------------|
|-------8---8--------10-------------12-------10---|
|---6--------------------------10--------8--------|

                                      2x
|---------------------------------------|
|---------------------------------------|
|---------------------------------------|
|---------------10-------8--------5/0---|
|-------8---8--------5-------/3---------|
|---6-----------------------------------|

Main Riff:                                             4x
|--------------------------------------------------------|
|--------------------------------------------------------|
|--------------------------------------------------------|
|-----5-7------------------------------------------------|
|---3-3-5-----------3h5-------------3h5------------------|
|---3------00-00-00-----00-00-00-00-----00-00-00-00-00---|
           .. .. ..     .. .. .. ..     .. .. .. .. ..

Bridge:   4x
|-----------|
|-----------|
|-----------|
|-----5-7---|
|---3-3-5---|
|---3-------|

Main Riff:                                             4x
|--------------------------------------------------------|
|--------------------------------------------------------|
|--------------------------------------------------------|
|-----5-7------------------------------------------------|
|---3-3-5-----------3h5-------------3h5------------------|
|---3------00-00-00-----00-00-00-00-----00-00-00-00-00---|
           .. .. ..     .. .. .. ..     .. .. .. .. ..

Bridge:   4x
|-----------|
|-----------|
|-----------|
|-----5-7---|
|---3-3-5---|
|---3-------|

Intro: [Clean Guitar] Paul                        2x
|---------------------------------------------------|
|---------------------------------------------------|
|------------10-10-10-10\12-12-12-7--7777-----------|
|---88888888-10-10-10-10\12-12-12-7--7777-7/5-5/4---|
|---8x8x8x8x--8--8--8--8\10-10-10-5--5555-5/3-3/2---|
|---88888888----------------------------------------| 

Intro: Richard
|-------------------------------------------------|
|-------------------------------------------------|
|-------------------------------------------------|
|---------------10--------12----------------------|
|-------8---8--------10-------------12-------10---|
|---6--------------------------10--------8--------|

                                      2x
|---------------------------------------|
|---------------------------------------|
|---------------------------------------|
|---------------10-------8--------5/0---|
|-------8---8--------5-------/3---------|
|---6-----------------------------------|

Chorus:                                       2x
|-----------------------------------------------|
|-----------------------------------------------|
|-----------------------------------------------|
|---11-11-11-11-11/9-9/66666\9-9/66666\9-9\11---|
|----9--9--9--9--9/7-7/44444\7-7/44444\7-7\-9---|
|-----------------------------------------------|

Paul:                             2x
|-----------------------------------|
|-----------------------------------|
|-----------------------------------|
|---99999-777-44444-777-44444-779---|
|---99999-777-44444-777-44444-779---|
|---99999-777-44444-777-44444-779---|

Solo: [Wah] Richard                        Paul
|----------------------------------------|-|------------------|
|---799-799-799-79---799-799-7999-79-----|-|------------------|
|------------------9-----------------9---|-|------------------|
|----------------------------------------|-|---3----------3---|
|----------------------------------------|-|---3----------3---|
|----------------------------------------|-|---3----------3---|
                                               .          .

Richard
|----------------------------------------|
|---799-799-799-79---799-799-7999-79-----|
|------------------9-----------------9---|
|----------------------------------------|
|----------------------------------------|
|----------------------------------------|

Paul:
|-----------------------------------------------|
|-----------------------------------------------|
|-----------------------------------------------|
|---3----------3----------3-----3----33333333---|
|---3----------3----------3-----3----3x3x3x3x---|
|---3----------3----------3-----3----33333333---|
    .          .          .     .    ........

|---------------------------------------|
|---799-799-799-79---799-799-799-79-----|
|------------------9----------------9---|
|---------------------------------------|
|---------------------------------------|
|---------------------------------------|

Main Riff:                                             4x
|--------------------------------------------------------|
|--------------------------------------------------------|
|--------------------------------------------------------|
|-----5-7------------------------------------------------|
|---3-3-5-----------3h5-------------3h5------------------|
|---3------00-00-00-----00-00-00-00-----00-00-00-00-00---|
           .. .. ..     .. .. .. ..     .. .. .. .. ..

Chorus: Richard                              2x
|-----------------------------------------------|
|-----------------------------------------------|
|-----------------------------------------------|
|---11-11-11-11-11/9-9/66666\9-9/66666\9-9\11---|
|----9--9--9--9--9/7-7/44444\7-7/44444\7-7\-9---|
|-----------------------------------------------|

Paul:
|-----------------------------------|
|-----------------------------------|
|-----------------------------------|
|---99999-777-44444-777-44444-779---|
|---99999-777-44444-777-44444-779---|
|---99999-777-44444-777-44444-779---|

Chorus: Richard
|-----------------------------------------------|
|-----------------------------------------------|
|-----------------------------------------------|
|---11-11-11-11-11/9-9/66666\9-9/66666\9-9\11---|
|----9--9--9--9--9/7-7/44444\7-7/44444\7-7\-9---|
|-----------------------------------------------|

Paul:
|--------------------------|
|--------------------------|
|--------------------------|
|--------------------------|
|--------------------------|
|---99999-777-44444-7779---|


Song:     Nebel
Tuning:   Standard

Intro:
|---------|-------------|
|---------|---<5>-------|
|---<7>---|-------<5>---|
|---------|-------------|
|---------|-------------|
|---------|-------------|

Verse:                              2x
|-------------------------------------|
|-------6-------5---------------5-----|
|-----------------------7-------------|
|-----7---7---7---7---7---7---7---7---|
|-------------------------------------|
|---5-------5-------5-------5---------|

Verse 2:
|----------5---------------------------------5-------------------------|
|---5----6-------5---------------5---5-----5-------5-------5-----------|
|------------------------7-----------------------7-------7-------7-----|
|------7-------7---7---7---7---7---7-----7-----------7---------7---7---|
|--------------------------------------5-------5-------5-----5---------|
|---5--------5-------5-------5-----------------------------------------|

|--------------------------------------0------------0---------------------|
|-----8----10----------------------------8---10-------------6-------5-----|
|---9---11--------9-------11-------9-------7------7-----------------------|
|---------------9---9---9----9---9---9----------------7---7---7---7---7---|
|------------------------------7------------------------------------------|
|---0---------7-------7----------------8--------8-------5-------5---------|

Verse 2:                            7x
|-------------------------------------|
|-------6-------5---------------5-----|
|-----------------------7-------------|
|-----7---7---7---7---7---7---7---7---|
|-------------------------------------|
|---5-------5-------5-------5---------|

|-----------------------------------|
|-------6-------6-------------------|
|---------------------7-------7-----|
|-----7---7---7-----7---7---7---7---|
|---7-------7-----5-------7---------|
|-----------------------------------|

Chorus:
     16x     16x     16x     8x       8x
|-------|-------|-------|-------|-------|
|-------|-------|-------|-------|-------|
|---9---|-------|-------|-------|---9---|
|---7---|---7---|---2---|---5---|---7---|
|-------|---5---|---2---|---3---|-------|
|-------|-------|-------|-------|-------| 2x

Fill:
|--------|
|--------|
|--------|
|---14---|
|---12---|
|--------|

Solo:
|------------------------------------------------|
|------------------------------------------------|
|------------------------------------------------|
|---14-14-14-14-14-14-\16-\17-/9-9-9-9-9-9-9-9---|
|---12-12-12-12-12-12-\14-\15-/7-7-7-7-7-7-7-7---|
|------------------------------------------------|

|--------------------------------------|
|--------------------------------------|
|--------------------------------------|
|---9-9-9-9-9-9-9-9--7-7-7-7-7-7-7-7---|
|---7-7-7-7-7-7-7-7--5-5-5-5-5-5-5-5---|
|--------------------------------------|

|--------------------------------------|
|--------------------------------------|
|--------------------------------------|
|---9-9-9-9-9-9-9-9--4-4-4-4-4-4-4-4---|
|---7-7-7-7-7-7-7-7--2-2-2-2-2-2-2-2---|
|--------------------------------------|

|----------------------------------------------|
|----------------------------------------------|
|----------------------------------------------|
|---5-5-5-5-5-5-5-5-\14-14-14-14-14-14-14-14---|
|---3-3-3-3-3-3-3-3-\12-12-12-12-12-12-12-12---|
|----------------------------------------------|

     16x     16x     16x     8x       8x
|-------|-------|-------|-------|-------|
|-------|-------|-------|-------|-------|
|---9---|-------|-------|-------|---9---|
|---7---|---7---|---2---|---5---|---7---|
|-------|---5---|---2---|---3---|-------|
|-------|-------|-------|-------|-------| 4x

Solo:
|------------------------------------------------|
|------------------------------------------------|
|------------------------------------------------|
|---14-14-14-14-14-14-\16-\17-/9-9-9-9-9-9-9-9---|
|---12-12-12-12-12-12-\14-\15-/7-7-7-7-7-7-7-7---|
|------------------------------------------------|

|--------------------------------------|
|--------------------------------------|
|--------------------------------------|
|---9-9-9-9-9-9-9-9--7-7-7-7-7-7-7-7---|
|---7-7-7-7-7-7-7-7--5-5-5-5-5-5-5-5---|
|--------------------------------------|

|--------------------------------------|
|--------------------------------------|
|--------------------------------------|
|---9-9-9-9-9-9-9-9--4-4-4-4-4-4-4-4---|
|---7-7-7-7-7-7-7-7--2-2-2-2-2-2-2-2---|
|--------------------------------------|

|-------------------------|
|-------------------------|
|-------------------------|
|---5-5-5-5-5-5-5-5\14~---|
|---3-3-3-3-3-3-3-3\12~---|
|-------------------------|

Notation:
<> = Harmonics 
\  = Slide Up
/  = Slide Down
~  = Ring 
comments
print report bad tab
3 comments total.
+1 reply
thehandthatfeed wrote on August 19 2009, 03:34 am

oh my god
i love it ;)

+1 reply
hunter187 wrote on March 31 2011, 03:17 pm

I won't lie, a little hard to pick out one song form another when just scrolling but amazing work. i applaud you!

0 reply
rezr wrote on March 31 2013, 01:51 am

The fact that the main riff on Mein Herz Brennt is COMPLETELY WRONG is the reason why this should be 3 stars instead of 4. Stupid UG voters

I want to post or [tab]
guest
You may want to rate the tab now too:
select rating
Please do not post tabs as comments. Select "correction" instead!