Oops, an error
Loading. Please wait.

Mutter Tab

version 1
112,618 views 384 this week
9 commentsread comments
1 2 3 4 5
x 19
add to favorites
launch autoscroll
font size
0
reset
how to read this tab
guitar tuner
×
Best way to learn
"Mutter"
Autoscroll
slow
fast
+/-
esc
set tempo
stop
Author
Tuning
  follow
E A D G B E
-----------------------------------------------------------------------
                            Rammstein - Mutter
-----------------------------------------------------------------------
Transcribed by Ben Godby
beniliusbob@hotmail.com

Guitar 1 - Standard Tuning – EADGBe
Guitar 2 – Drop D Tuning   - DADGBe


[Verse] (Guitar 1)
   Em                                        B
e|-----------------7-------------------------7-----------------7-----|
B|-------------8-------8-------------------7---7-------------7---7---|
G|---------9---------------9-------------8-------8---------8-------8-|
D|-----9-----------------------9-------9-----------------7-----------|
A|-7---------------------------------9-----------------7-------------|
E|---------------------------------7-----------------9---------------|


[Chorus] (Guitar 1)
e|------------------------------------------------------------------|
B|--------------------10/12-----12-10-12-10-------------------------|
G|-8/9----------11-12-----------------------11----------<11><12><11>|
D|------------------------------------------------------------------|
A|------------------------------------------------------------------|
E|------------------------------------------------------------------|

Chorus (Guitar 2)
e|---------------------------------|
B|---------------------------------|
G|---------------------------------|
D|-2-------5-/7----0---------------|
A|-2-------5-/7----0---------------|
D|-2-------5-/7----0---------------|


[Bridge]
e|-----------------------------------------|
B|-----------------------------------------|
G|-5-------7-------4-------5-------7-------|
D|-5-------7-------4-------5-------7-------|
A|-3-------5-------2-------3-------5-------|
D|-----------------------------------------|

After the bridge and synthesizer break, there is a key change (from Em to F#m),
and all notes/chords are moved up two steps for the last chorus.


[Chorus] (Guitar 1)
e|--------------------------------------------------------------|
B|-------------------12/14-----14-12-14-12----------------------|
G|-11----------13-14-----------------------13------<13><14><13>-|
D|--------------------------------------------------------------|
A|--------------------------------------------------------------|
E|--------------------------------------------------------------|

Chorus (Guitar 2)
e|---------------------------------|
B|---------------------------------|
G|---------------------------------|
D|-4-------7-/9----11----6---------|
A|-4-------7-/9----9-----4---------|
D|-4-------7-/9--------------------|


[Bridge]
Guitar 1
e|-----------------------------------------|
B|-----------------------------------------|
G|-7-------9---6----7-------9--------------|
D|-7-------9---6----7-------9--------------|
A|-5-------7---4----5-------7--------------|
E|---------------------------------5-7-5-4-|


***********************************************

/  = slide
<> = optional note(s)

***********************************************
Suggest correction
comments
print report bad tab
9 comments total. Showing first comments.
0 reply
jestuts 10 Mar 25, 2003 07:00 PM

great tab-finally someone tabbed some decent rammstein

0 reply
mattstatic 91 Dec 21, 2003 07:00 PM

good tab. but i think the chorus for guitar 1 is:
e|--------------------------------------------------------|
B|--------------------------------------------------------|
G|--8/9-----11-12-14/16-------14-16-14-11-----|
D|--------------------------------------------------------|
A|--------------------------------------------------------|
E|--------------------------------------------------------|
other than this its perfect.nice 1

0 reply
Brandon_leigh 16 Nov 15, 2006 05:21 AM

Cool, complete and good

guest
You may want to rate the tab now too:
select rating
Wanna post a correction for this tab? Suggest correction