Oops, an error
Loading. Please wait.
We have an official Mutter tab made by UG professional guitarists. Check out the tab »
×
5,254 views 1 this week
1 commentread comment
1 2 3 4 5
2 more votes to show rating
add to favorites
×
Save as Personal and add changes to this tab that will be seen only by you. Learn more ›
×
You can save this tab as Personal to edit and correct it or add notes. All changes will be seen only by you. Learn more »
launch autoscroll
font size
0
reset
how to read this tab
guitar tuner
edit
Autoscroll
slow
fast
+/-
esc
set tempo
stop
SONG - MUTTER
ALBUM - MUTTER
TUNING - DROP D (D,A,D,G,B,E,)

~ = LET NOTE RING
* = PALM MUTE
/ = SLIDE
p = PULL OFF
h = HAMMER ON

 THIS IS 100% ACCURATE PLEASE RATE.


  INTRO CLEAN RIFF1

E-------------7---------]-------------------------------------]
B------8--8----8----10--]----------12----------------12-------]
G-------9--9----9-------]--------11--11------------11--11-----]
D----------------9------]----9-13------13------9-13------12---]
A---9-------------------]---9-----------------9---------------]
D--7--------------------]--9-----------------9----------------]


    RIFF 2 GTR 1                        RIFF 2 GTR 2
E-------------------------------]------------------------------------------]
B-------------------------------]-----7h8-8/12~--12p10-12p10---------------]
G-------------------------------]-8h9~--------------------- 11~11~11~12~11-]
D-------------------------------]------------------------------------------]
A--2~--2/5~--/7~--0~--9~--9999--]------------------------------------------]
D--2~--2/5~--/7~--0~--9~--9999--]------------------------------------------]


 RIFF 1
 RIFF 2


  RIFF 3 GTR1                                          GTR 2
E--------------------------------------------------]-------------------------|
B--------------------------------------------------]-------------------------|
G--5~-5555555------------55555555------------------]-14~~14~16~17~----14~16~-|
D--5~-5555555-7777-------55555555-7777-77----------]-------------14~17~------|
A--3~-3333333-5555-9999--33333333-5555-55-5-7-5-4--]-------------------------|
D-------------0000-9999-----------0000-00-5-7-5-4--]-------------------------|

 SOUND FX

 mutter....mutter......muter.....MUTTER!!


    RIFF 4 GTR1                          GTR 2
E-------------------------------]------------------------------------------]
B-------------------------------]------9H10-/14~-14P12-14P12---------------]
G-------------------------------]-10h11~--------------------13~13~13~14~13-]
D---------------------6---6666--]------------------------------------------]
A--4~--4/7~--/9~--2~--4~--4444--]------------------------------------------]
D--4~--4/7~--/9~--2~------------]------------------------------------------]




    RIFF 5 GTR1                                         GTR 2
E------------------------------------------------]-------------------------]
B------------------------------------------------]-------------------------]
G------------------------------------------------]-16~~16~18~19~----16~18~-]
D-----------9999-6666-----------9999-99----------]-------------16~19~------]
A--00000000-7777-4444--00000000-7777-77-7-9-7-6--]-------------------------]
D--00000000------------00000000---------7-9-7-6--]-------------------------]

RIFF 4 X4 - END.


 THATS ALL PLZ RATE.

 TABBED BY- IMMORTAL_STONE

            
            
Suggest correction
Creating personal tab
Creating personal tab
You can edit any tab online and save it as your Personal.

You can edit, replace or remove any tab part or add personal notes – all changes will be seen only by you.

Personal tabs can be accessed anytime from any device, even offline.
Learn more »
Give kudos to tab author, rate the tab!
1 2 3 4 5
comments
print report bad tab
1 comment total.
0 reply
YouSuckBad 10 Mar 24, 2010 05:41 PM

It may sound right (and it's not) but have you even tried to play it? This is definitely not the human way to play it.

guest
You may want to rate the tab now too:
select rating
Wanna post a correction for this tab? Suggest correction