Oops, an error
Loading. Please wait.

Nebel Bass

version 2
version 2

Whole song

Interactive

921 views 1 this week
1 commentread comment
1 2 3 4 5
1 last vote to show rating
add to favorites
×
Save as Personal and add changes to this tab that will be seen only by you. Learn more ›
×
You can save this tab as Personal to edit and correct it or add notes. All changes will be seen only by you. Learn more »
save as personal
new!
launch autoscroll
font size
0
reset
guitar tuner
Autoscroll
slow
fast
+/-
esc
set tempo
stop
Author
Rammstein
Nebel
Tabed by olli 15

Standard Tuning

Main Thing
G----------------------------------------------------------
D----------------------------------------------------------
A-------------3--------------------------------------------
E-3-55555555----55555555-3-55555555-3-55555555-3-55555555--

G----------------------------------------------------------
D----------------------------------------------------------
A-3--------------------------------------------------------
E---55555555-----------------------------------------------

Just before the chourus, it goes like this

G----------------------------------------------------------
D----------------------------------------------------------
A------------3---------------------------------------------
E-3-55555555---55555555--22222222--00000000----------------

Chourus

G----------------------------------------------------------
D----------------------------------------------------------
A-----------------------3-55555555-3-55555555-5-77777777---
E-3-55555555-3-55555555------------------------------------

G----------------------------------------------------------
D----------------------------------------------------------
A------------33333333--------------------------------------
E-5-77777777----------3-55555555-3-55555555----------------



Suggest correction
Give kudos to tab author, rate the tab!
1 2 3 4 5
comments
print report bad tab
1 comment total.
0 reply
Sffr226 10 Jun 22, 2010 09:19 AM

Mostly good, but before chorus it should be this:
G----------------------------------------------------------
D----------------------------------------------------------
A------------3---------------------55555555*---------------
E-3-55555555---55555555--11111111--------------------------

*If you have a 5-string, you could use the low D instead
of using the one the A string. Gives a nice deep sound.

guest
You may want to rate the tab now too:
select rating
Wanna post a correction for this tab? Suggest correction