Oops, an error
Loading. Please wait.
We have an official Ohne Dich tab made by UG professional guitarists. Check out the tab »
×
9,232 views 3 this week
2 commentsread comments
1 2 3 4 5
1 last vote to show rating
add to favorites
×
Save as Personal and add changes to this tab that will be seen only by you. Learn more ›
×
You can save this tab as Personal to edit and correct it or add notes. All changes will be seen only by you. Learn more »
launch autoscroll
font size
0
reset
guitar tuner
edit
Autoscroll
slow
fast
+/-
esc
set tempo
stop
Author
Difficulty
This is how I play the song, I'm pretty sure it's not right but oh well, better than 
else has posted.

Tuning: D A D G

Intro (bass starts at STARTING, not 0:57)

G||-------------------|-------------------|-------------------|
D||--0----------------|--10---------------|--5----------------|
A||-------------------|-------------------|-------------------|
D||--0----------------|--10---------------|--5----------------|

|--------------------| <|
|--3--------7--------| <|
|--------------------| <|
|--3--------7--------| <| x4

at 0:56

G||-----------------------|-----------------------|-----------------------|
D||----0---0---0---0---0--|----7---7---7---7---7--|----5---5---5---5---5--|
A||-----------------------|-----------------------|-----------------------|
D||--0---0---0---0---0---0|--7---7---7---7---7---7|--5---5---5---5---5---5|

|------------------------| <|
|----3---3---3--7---7--7-| <|
|------------------------| <|
|--3---3----3-7---7---7--| <| x2

at 1:24 and 2:49
G||-----------------|-----------------|
D||----------0------|----------0------|
A||-----------------|-----------------|
D||--0---0-------0--|--0---0-------0--|

|-----------------|-----------------|
|----------7------|----------7------|
|-----------------|-----------------|
|--7---7-------7--|--7---7-------7--|

|-----------------|-----------------|
|----------5------|----------5------|
|-----------------|-----------------|
|--5---5-------5--|--5---5-------5--|

|-----------------|-----------------|
|----------3------|----------7------|
|-----------------|-----------------|
|--3---3-------3--|--7---7-------7--|

at 1:39

G||-----------------|-----------------|
D||----------0------|----------0------|
A||-----------------|-----------------|
D||--0---0-------0--|--0---0-------0--|

|-----------------|-----------------|
|----------7------|----------7------|
|-----------------|-----------------|
|--7---7-------7--|--7---7-------7--|

|-----------------|-----------------|
|----------5------|----------5------|
|-----------------|-----------------|
|--5---5-------5--|--5---5-------5--|

|-----------------------------------|
|----------------------------10-----|
|-----------------------------------|
|--3-----------3/10----------10-----|

-----AT 3:03 after 2:49-----

G||-----------------|-----------------|
D||----------0------|----------0------|
A||-----------------|-----------------|
D||--0---0-------0--|--0---0-------0--|

|-----------------|-----------------|
|----------7------|----------7------|
|-----------------|-----------------|
|--7---7-------7--|--7---7-------7--|

|-----------------|-----------------|
|----------3------|----------3------|
|-----------------|-----------------|
|--3---3-------3--|--3---3-------3--|

|-----------------------------------|
|----------------------------10-----|
|-----------------------------------|
|--3-----------3/10----------10-----|

at 1:52 and 3:17
Note: throw in pickings every few beats of the same fret that you're playing; ex: if 
playing 9 on D, play 9 on the second beat on the third string(D)... something like that if 
get it.

G||-------------------------------|---------------------------------|
D||-------------------------------|---------------------------------|
A||-------------------------------|---------------------------------|
D||-0---0---0---0---0---0---0---0-|--7---7---7---7---7---7---7---7--|

|---------------------------|---------------------------------|
|---------------------------|---------------------------------|
|---------------------------|---------------------------------| at 1:52 play x4
|-5---5---5---5---5---5---5-|--3---3---3---3---7---7---7---7--| at 3:17 play x4

at 4:13 end with

G||-----------------|
D||-0~~~~~~~~~~~~~~-|
A||-----------------|
D||-0~~~~~~~~~~~~~~-|

            
            
Suggest correction
Creating personal tab
Creating personal tab
You can edit any tab online and save it as your Personal.

You can edit, replace or remove any tab part or add personal notes – all changes will be seen only by you.

Personal tabs can be accessed anytime from any device, even offline.
Learn more »
Give kudos to tab author, rate the tab!
1 2 3 4 5
comments
print report bad tab
2 comments total.
+2 reply
boycew30 10 Jul 13, 2007 07:04 AM

Not a bad tab but when Till comes in at 3:03 it goes:

G||-----------------|-----------------|
D||----------0------|----------0------|
A||-----------------|-----------------|
D||--0---0-------0--|--0---0-------0--|


G||-----------------|-----------------|
D||----------7------|----------7------|
A||-----------------|-----------------|
D||--7---7-------7--|--7---7-------7--|


G||-----------------|-----------------|
D||----------3------|----------3------|
A||-----------------|-----------------|
D||--3---3-------3--|--3---3-------3--|


G||-----------------|
D||--3--------------|
A||-----------------|
D||--3--------------|

Apart from that though it seems very accurate. Gj! :)

+1 reply
bass_in_your #! 10 Apr 08, 2008 06:59 AM

well at the last piece

G||-------------------------------|---------------------------------|
D||-------------------------------|---------------------------------|
A||-------------------------------|---------------------------------|
D||-0---0---0---0---0---0---0---0-|--7---7---7---7---7---7---7---7--|

this one i think you have to put one between it on the D string like this:
D||-0---0---0---0---0---0---0---3-|--7---7---7---7---7---7---7---7--|


its a little diffrence but maybe a good piece between making it a little better oh by the way good tab no mistakes...... keep up making ood tabs
Cheers,bass_in_your #!

guest
You may want to rate the tab now too:
select rating
Wanna post a correction for this tab? Suggest correction