Oops, an error
Loading. Please wait.

Ohne Dich Chords

version 3
version 3

Whole song

Interactive

89,456 views 336 this week
7 commentsread comments
1 2 3 4 5
excellent!
x 22
add to favorites
launch autoscroll
font size
0
reset
transpose
0
reset
display chords
guitar tuner
Autoscroll
slow
fast
+/-
esc
set tempo
stop
Help us to improve Ultimate-Guitar.com Take our survey!
×
Author
Difficulty
novice
[Intro]

Dm Am Gm F Am


[Verse]

Dm                Am
Ich werde in die Tannen geh'n,
Gm                F         Am
dahin, wo ich sie zuletzt geseh'n,
Dm                      Am
doch der Abend wirft ein Tuch auf's Land
Gm              F              Am
und auf die Wege hinter'm Waldesrand
Dm                      Am
und der Wald er steht so schwarz und leer,
Gm
weh mi oh weh
F                Am
und die Vögel singen nicht mehr


[Chorus]

Dm                              Am
Ohne dich kann ich nicht sein, ohne dich
Gm                              F       Am
Mit dir bin ich auch allein, ohne dich (ohne Dich)
Dm                                Am
Ohne dich zähl ich die Stunden, ohne dich
Gm                              F              Am
Mit dir stehen die Sekunden, lohnen nicht (Ohne dich)


[Verse]

Dm                       Am
Auf den Nestern, in den Gräben
Gm                         F Am
ist es nun still und ohne leben
Dm                       Am
und das atmen fällt mir ach so schwer
Gm
weh mi oh weh
F                Am
und die Vögel singen nicht mehr.


[Chorus]

Dm                              Am
Ohne dich kann ich nicht sein, ohne dich
Gm                              F       Am
Mit dir bin ich auch allein, ohne dich (ohne Dich)
Dm                                Am
Ohne dich zähl ich die Stunden, ohne dich
Gm                              F              Am
Mit dir stehen die Sekunden, lohnen nicht (Ohne dich)


[Bridge]
      
e|----------------|5---------------|----------------|5-------6---5---|
B|------------5-6-|--------5-------|------------5-6-|----------------|
G|7---------------|----------------|7---------------|----------------|
D|----------------|----------------|----------------|----------------|
A|----------------|----------------|----------------|----------------|
E|----------------|----------------|----------------|----------------|

Dm Am Gm F Am  
(no Lyrics)
Dm Am Gm F Am
           Ohne Dich
Dm Am Gm F Am
(no Lyrics)

(Stop Melody)


[Verse]

Dm                       Am
und das atmen fällt mir ach so schwer
Gm
weh mi oh weh
F                Am
und die Vögel singen nicht mehr.


[Chorus]

Dm                              Am
Ohne dich kann ich nicht sein, ohne dich
Gm                              F       Am
Mit dir bin ich auch allein, ohne dich (ohne Dich)
Dm                                Am
Ohne dich zähl ich die Stunden, ohne dich
Gm                              F              Am
Mit dir stehen die Sekunden, lohnen nicht (Ohne dich)


[Outro]

e|----------------|5---------------|----------------|5-------6---5---|
B|------------5-6-|--------5-------|------------5-6-|----------------|
G|7---------------|----------------|7---------------|----------------|
D|----------------|----------------|----------------|----------------|
A|----------------|----------------|----------------|----------------|
E|----------------|----------------|----------------|----------------|

Dm Am           Gm F    Am
   Ohne Dich       Ohne Dich
Dm Am           Gm F      Am      Dm...
   Ohne Dich       oooohne Dich
Suggest correction
What's this?
You can suggest a correction to this tab. Community and Mods will review your correction and vote to approve or reject it.
comments
print report bad tab
7 comments total. Showing first comments.
+2 reply
Cpcrasher 25 wrote on October 10 2006, 11:33 am

thx 4 commenting....
i already played this live... i think it's correct

+2 reply
RzKruspe 242 wrote on November 3 2006, 07:53 pm

That's great! Thanks, it's correct

+2 reply
Cpcrasher 25 wrote on November 22 2006, 10:15 am

anytime ;)

guest
You may want to rate the tab now too:
select rating
Please do not post tabs as comments. Select "correction" instead!