Oops, an error
Loading. Please wait.
We have an official Ohne Dich tab made by UG professional guitarists. Check out the tab »
×
3,665 views 12 this week
no commentswrite comment
1 2 3 4 5
2 more votes to show rating
add to favorites
×
Save as Personal and add changes to this tab that will be seen only by you. Learn more ›
×
You can save this tab as Personal to edit and correct it or add notes. All changes will be seen only by you. Learn more »
launch autoscroll
font size
0
reset
how to read this tab
guitar tuner
edit
Autoscroll
slow
fast
+/-
esc
set tempo
stop
Author
Song : Ohne Dich
Artist : Rammstein
Tabbed by : FlameGame (GSG)

The whole song follows a very similar pattern on the same chords. I don't like tabs with 
different tuning than EADGBe so in this tab i'll use two guitars

in Standard tuning. :) I'll also replace the synthesizer parts so you don't need that. 
is my first tab! Most people think this tab is upside down so

sorry!!

Guitar 1 - EADGBe
Guitar 2 - EADGBe

INTRO:

Guitar 1:(replacing synthesizer) strum once

    Dm C  Gm F Am

E|--------3--1----|
A|--5--3--5--3-0--|
D|--7--5--5--3-2--|
G|--7--5-------2--|
B|----------------|
e|----------------|


VERSE 1 : Starting with the lyrics

Guitar 1:(replacing synthesizer) strum once

    Dm C  Gm F Am

E|--------3--1----|
A|--5--3--5--3-0--|
D|--7--5--5--3-2--|
G|--7--5-------2--|   x4
B|----------------|
e|----------------|


CHORUS:

Guitar 1 : (Here the actual guitar parts start)(Drums start)(Strum along now)

    Dm C  Gm F Am

E|--------3--1----|
A|--5--3--5--3-0--|
D|--7--5--5--3-2--|
G|--7--5-------2--|   x4
B|----------------|
e|----------------|


Verse 2:

Guitar 1: Strum along

    Dm C  Gm F Am

E|--------3--1----|
A|--5--3--5--3-0--|
D|--7--5--5--3-2--|
G|--7--5-------2--|   x4
B|----------------|
e|----------------|

Guitar 2 : (Bass should be more than Guitar 1)(Use clean tone here)(strum once)

     Dm C  Gm F Am

E|--------3--1----|             |E|--------3---1-------|
A|--5--3--5--3-0--|             |A|-5---3---5---3--0---|
D|--7--5--5--3-2--|             |D|--7---5---5---3--2--|
G|--7--5-------2--|   x4   OR   |G|---7---5----------2-|    x4
B|----------------|             |B|--------------------|
e|----------------|             |e|--------------------|


CHORUS:

Guitar 1 :

    Dm C  Gm F Am

E|--------3--1----|
A|--5--3--5--3-0--|
D|--7--5--5--3-2--|
G|--7--5-------2--|   x4
B|----------------|
e|----------------|

Guitar 2 : Metal Distrotion(Strum once with echo)

    Dm C  Gm F Am

E|--------3--1----|
A|--5--3--5--3-0--|
D|--7--5--5--3-2--|
G|--7--5-------2--|   x4
B|----------------|
e|----------------|


SOLO:

Guitar 1: Strum along

    Dm C  Gm F Am

E|--------3--1----|
A|--5--3--5--3-0--|
D|--7--5--5--3-2--|
G|--7--5-------2--|   x4
B|----------------|
e|----------------|

Guitar 2 :

E|---------------------------------------|
A|---------------------------------------|
D|12---14-15----14---12--14-15-----------|
G|-----------14----------------14-15-14--|   x2
B|---------------------------------------|
e|---------------------------------------|


VERSE 3: Lyrics come after 2nd repeat

Guitar 1: Strum along

    Dm C  Gm F Am

E|--------3--1----|
A|--5--3--5--3-0--|
D|--7--5--5--3-2--|
G|--7--5-------2--|   x4
B|----------------|
e|----------------|

Guitar 2 : (Bass should be more than Guitar 1)(Use clean tone here)(strum once)

E|--------3---1-------|
A|-5---3---5---3--0---|
D|--7---5---5---3--2--|
G|---7---5----------2-|    x4
B|--------------------|
e|--------------------|


CHORUS:

Guitar 1: Strum along

    Dm C  Gm F Am

E|--------3--1----|
A|--5--3--5--3-0--|
D|--7--5--5--3-2--|
G|--7--5-------2--|   x4
B|----------------|
e|----------------|

Guitar 2 :(Screech with echo)

E|------------------|
A|------------------|
D|------------------|
G|------------------|
B|-3--1--8--6-------|
e|-----------5------|

SOLO:

Guitar 1: Strum along

    Dm C  Gm F Am

E|--------3--1----|
A|--5--3--5--3-0--|
D|--7--5--5--3-2--|
G|--7--5-------2--|   x4
B|----------------|
e|----------------|

Guitar 2 :

E|---------------------------------------|
A|---------------------------------------|
D|12---14-15----14---12--14-15-----------|
G|-----------14----------------14-15-14--|   x2
B|---------------------------------------|
e|---------------------------------------|

End on D.
So thats it. Any synthesizer can follow same chords.


LYRICS:

Ich werde in die Tannen gehen,
Dahin, wo ich sie zu letzt gesehen

Doch der Abend wirft ein Tuch aufs Land,
Und auf die Wege hinterm Waldesrand

Und der Wald er steht so schwarz und leer,
Weh mir oh weh, und die Vögel singen nicht mehr...

Ohne dich kann ich nicht sein – Ohne dich,
Mit dir bin ich auch allein - Ohne dich.
Ohne dich zähle ich die Stunden – Ohne dich,
Mit dir stehen die Sekunden – Lohnen nicht.

Auf den Ästen in den Gräben,
Ist es nun still und ohne Leben

Und das Atmen fällt mir ach, so schwer,
Weh mir oh weh, und die Vögel singen nicht mehr...

Ohne dich kann ich nicht sein – Ohne dich,
Mit dir bin ich auch allein - Ohne dich. (Ohne dich)
Ohne dich zähle ich die Stunden – Ohne dich,
Mit dir stehen die Sekunden – Lohnen nicht, ohne dich.

Ohne dich

Und das Atmen fällt mir ach, so schwer,
Weh mir oh weh, und die Vögel singen nicht mehr...

Ohne dich kann ich nicht sein – Ohne dich,
Mit dir bin ich auch allein - Ohne dich (Ohne dich)
Ohne dich zähle ich die Stunden – Ohne dich,
Mit dir stehen die Sekunden – Lohnen nicht, ohne dich

Ohne dich

Ohne dich

Ohne dich

Ohne dich

            
            
Suggest correction
Creating personal tab
Creating personal tab
You can edit any tab online and save it as your Personal.

You can edit, replace or remove any tab part or add personal notes – all changes will be seen only by you.

Personal tabs can be accessed anytime from any device, even offline.
Learn more »
Give kudos to tab author, rate the tab!
1 2 3 4 5
comments
print report bad tab
guest
You may want to rate the tab now too:
select rating
Wanna post a correction for this tab? Suggest correction