Oops, an error
Loading. Please wait.
We have an official Pussy tab made by UG professional guitarists. Check out the tab »
×
16,132 views 12 this week
2 commentsread comments
1 2 3 4 5
1 last vote to show rating
add to favorites
×
Save as Personal and add changes to this tab that will be seen only by you. Learn more ›
×
You can save this tab as Personal to edit and correct it or add notes. All changes will be seen only by you. Learn more »
launch autoscroll
font size
0
reset
guitar tuner
backing track
0:00
0:00
edit
Autoscroll
slow
fast
+/-
esc
set tempo
stop
Song: Pussy
Artist: Rammstein
Album: Liebe Ist Für Alle Da 
Tuning: Drop C (CGCF)


Intro 
2x
F|------------------------------------------------------------------|
C|------------------------------------------------------------------| 
G|---------------------------------2-2-2-2-2-2-2-2------------------|
C|-2-2-2-2-2-2-2-2-0-0-0-0-0-0-0-0-----------------5-5-5-5-5-7-7-7--|


VERSE
2x
F|------------------------------------------------------------------|
C|-2-2-2-2-2-2-2-2--------------------------------------------------| 
G|-----------------5-5-5-5-5-5-5-5-2-2-2-2-2-2-2-2------------------|
C|-------------------------------------------------5-5-5-5-5-7-7-7--|

F|------------------------------------------------------------------|
C|-2-2-2-2-2-2-2-2--------------------------------------------------| 
G|-----------------5-5-5-5-5-5-5-5-2-2-2-2-2-2-2-2-2-2-2-2-2-2-2-2--|
C|------------------------------------------------------------------|


PRE-CHORUS
F|------------------------------------------------------------------|
C|-2-2-2-2-2-2-2-2-2-2-2-2-2-2-2-2----------------------------------| 
G|------------------------------------------------------------------|
C|---------------------------------5-5-5-5-5-5-5-5-7-7-7-7-7-7-7-7--|


CHORUS
2x
F|------------------------------------------------------------------|
C|------------------------------------------------------------------| 
G|---------------------------------2-2-2-2-2-2-2-2------------------|
C|-2-2-2-2-2-2-2-2-0-0-0-0-0-0-0-0-----------------5-5-5-5-5-7-7-7--|

F|------------------------------------------------------------------|
C|------------------------------------------------------------------| 
G|---------------------------------2-2-2-2-2-2-2-2------------------|
C|-2-2-2-2-2-2-2-2-0-0-0-0-0-0-0-0-----------------5---5---4---4----|


Bridge
2x
F|------------------------------------------------------------------|
C|------------------------------------------------------------------| 
G|-------3---------------5\3-2----------3----------------5\3-2------|
C|-2-0-2-----------2-0-2----------2-0-2------------2-0-2------------|


Kick at 2:59
F|------------------------------------------------------------------|
C|------------------------------------------------------------------| 
G|-----------------5~--------------2~-------------------------------|
C|-2~---------------------------------------------------------------|

F|------------------------------------------------------------------|
C|------------------------------------------------------------------| 
G|-----------------5~--------------2--------------------------------|
C|-2~---------------------------------------------------------------|


FINAL CHORUS
2x
F|------------------------------------------------------------------|
C|------------------------------------------------------------------| 
G|---------------------------------2-2-2-2-2-2-2-2------------------|
C|-2-2-2-2-2-2-2-2-0-0-0-0-0-0-0-0-----------------5-5-5-5-5-7-7-7--|

F|------------------------------------------------------------------|
C|------------------------------------------------------------------| 
G|---------------------------------2-2-2-2-2-2-2-2------------------|
C|-2-2-2-2-2-2-2-2-0-0-0-0-0-0-0-0-----------------5---5---4---4----|

And yer done.

            
            
Suggest correction
Creating personal tab
Creating personal tab
You can edit any tab online and save it as your Personal.

You can edit, replace or remove any tab part or add personal notes – all changes will be seen only by you.

Personal tabs can be accessed anytime from any device, even offline.
Learn more »
Give kudos to tab author, rate the tab!
1 2 3 4 5
comments
print report bad tab
2 comments total.
0 reply
Intimate Panda 10 Nov 12, 2009 05:38 PM

Excellent! People need to post more Rammstein tabs

0 reply
Engvar 10 Jan 01, 2010 11:32 PM

I think...it`s not so good...there is something missing.

guest
You may want to rate the tab now too:
select rating
Wanna post a correction for this tab? Suggest correction