Oops, an error
Loading. Please wait.
We have an official Pussy tab made by UG professional guitarists. Check out the tab »
×

Pussy tab

48,957 views 6 this week
1 commentread comment
1 2 3 4 5
x 7
add to favorites
×
Save as Personal and add changes to this tab that will be seen only by you. Learn more ›
×
You can save this tab as Personal to edit and correct it or add notes. All changes will be seen only by you. Learn more »
launch autoscroll
font size
0
reset
how to read this tab
guitar tuner
backing track
0:00
0:00
edit
Autoscroll
slow
fast
+/-
esc
set tempo
stop
Song: Pussy
Artist: Rammstein
Album: Liebe Ist Für Alle Da 
Tuning: Drop C (CGCFAD)

02/10/2010 update: I just updated since the studio version was different then the 
leaked one. I just changed the keyboard riffs to a more correct take.

INTRO
Both Guitars 2x
D|------------------------------------------------------------------| 
A|------------------------------------------------------------------|
F|---------------------------------4-4-4-4-4-4-4-4------------------|
C|-2-2-2-2-2-2-2-2-7-7-7-7-7-7-7-7-4-4-4-4-4-4-4-4-5-5-5-5-5/7-7-7--| 
G|-2-2-2-2-2-2-2-2-5-5-5-5-5-5-5-5-2-2-2-2-2-2-2-2-5-5-5-5-5/7-7-7--|
C|-2-2-2-2-2-2-2-2-0-0-0-0-0-0-0-0-----------------5-5-5-5-5/7-7-7--|

D|------------------------------------------------------------------| 
A|------------------------------------------------------------------|
F|---------------------------------4-4-4-4-4-4-4-4------------------|
C|-2-2-2-2-2-2-2-2-7-7-7-7-7-7-7-7-4-4-4-4-4-4-4-4-5---5---4---4----| 
G|-2-2-2-2-2-2-2-2-5-5-5-5-5-5-5-5-2-2-2-2-2-2-2-2-5---5---4---4----|
C|-2-2-2-2-2-2-2-2-0-0-0-0-0-0-0-0-----------------5---5---4---4----|


Keyboard 2x
D|-12--12--1212--1214--14--1414--1410--10--1010--1015--15--14/15\14-| 
A|-x---x---x-x---x-x---x---x-x---x-x---x---x-x---x-x---x---x--x--x--|
F|-9---9---9-9---9-11--11--1111--117---7---7-7---7-12--12--11/12\11-|
C|------------------------------------------------------------------| 
G|------------------------------------------------------------------|
C|------------------------------------------------------------------|

D|-12--12----12--1214--14----14--1410--10----10--1015--15--14/15\14-| 
A|-x---x-----x---x-x---x-----x---x-x---x-----x---x-x---x---x--x--x--|
F|-9---9-----9---9-11--11----11--117---7-----7---7-12--12--11/12\11-|
C|------------------------------------------------------------------| 
G|------------------------------------------------------------------|
C|------------------------------------------------------------------|

D|-12--12----12--1214--14----14--1414--14----14--1415--15--14--15---| 
A|-x---x-----x---x-x---x-----x---x-x---x-----x---x-x---x---x---x----|
F|-9---9-----9---9-11--11----11--1111--11----11--1112--12--11--12---|
C|------------------------------------------------------------------| 
G|------------------------------------------------------------------|
C|------------------------------------------------------------------|

D|-12--19----12--1210--19----14--1414--14----14--1415--15--19\17/19-| 
A|-x---x-----x---x-x---x-----x---x-x---x-----x---x-x---x---x--x--x--|
F|-9---16----9---9-7---16----11--1111--11----11--1112--12--16\14/16-|
C|------------------------------------------------------------------| 
G|------------------------------------------------------------------|
C|------------------------------------------------------------------|



VERSE
Just Bass


PRE-CHORUS

Guitar
F|------------------------------------------------------------------| 
A|------------------------------------------------------------------|
F|-1212121212121212121212121212121214141414141414141616161616161616-|
C|-x-x-x-x-x-x-x-x-x-x-x-x-x-x-x-x-x-x-x-x-x-x-x-x-x-x-x-x-x-x-x-x--| 
G|-1010101010101010101010101010101012121212121212121414141414141414-|
C|------------------------------------------------------------------|

Keyboard (yes, it’s 24, 22, 20, etc.)
D|-24-22-20-15~--------------25-24-20-17~----------19~--------------| 
A|------------------------------------------------------------------|
F|------------------------------------------------------------------|
C|------------------------------------------------------------------| 
G|------------------------------------------------------------------|
C|------------------------------------------------------------------|



CHORUS

Both Guitars 2x
D|------------------------------------------------------------------| 
A|------------------------------------------------------------------|
F|---------------------------------4-4-4-4-4-4-4-4------------------|
C|-2-2-2-2-2-2-2-2-7-7-7-7-7-7-7-7-4-4-4-4-4-4-4-4-5-5-5-5-5/7-7-7--| 
G|-2-2-2-2-2-2-2-2-5-5-5-5-5-5-5-5-2-2-2-2-2-2-2-2-5-5-5-5-5/7-7-7--|
C|-2-2-2-2-2-2-2-2-0-0-0-0-0-0-0-0-----------------5-5-5-5-5/7-7-7--|

D|------------------------------------------------------------------| 
A|------------------------------------------------------------------|
F|---------------------------------4-4-4-4-4-4-4-4------------------|
C|-2-2-2-2-2-2-2-2-7-7-7-7-7-7-7-7-4-4-4-4-4-4-4-4-5---5---4---4----| 
G|-2-2-2-2-2-2-2-2-5-5-5-5-5-5-5-5-2-2-2-2-2-2-2-2-5---5---4---4----|
C|-2-2-2-2-2-2-2-2-0-0-0-0-0-0-0-0-----------------5---5---4---4----|

Keyboard 4x
D|-12--12--1212--1214--14--1414--1410--10--1010--1015--15--14/15\14-| 
A|-x---x---x-x---x-x---x---x-x---x-x---x---x-x---x-x---x---x--x--x--|
F|-9---9---9-9---9-11--11--1111--117---7---7-7---7-12--12--11/12\11-|
C|------------------------------------------------------------------| 
G|------------------------------------------------------------------|
C|------------------------------------------------------------------|


VERSE 2

Keyboard
D|-19-17-----------19-17-----------19-17----19----------------19~--------17-| 
A|-------20-17~----------20-15~----------20----19~---------19------19-20----|
F|------------------------------------------------------16------------------|
C|--------------------------------------------------------------------------| 
G|--------------------------------------------------------------------------|
C|--------------------------------------------------------------------------|

D|-19-17---------19-17----19-17---------19-17----19--------22-19------------| 
A|-------20-17~--------20-------20-15~--------20----19~----------19-12*-----|
F|--------------------------------------------------------------------------|
C|--------------------------------------------------------------------------| 
G|--------------------------------------------------------------------------|
C|--------------------------------------------------------------------------|
The actual note is an octave higher than A-19, but A-12* works fine.

D|-19-17---------19-17----19-17---------19-17----19--------------19~--22-24-| 
A|-------20-17~--------20-------20-15~--------20----19~-------17------------|
F|---------------------------------------------------------16---------------|
C|--------------------------------------------------------------------------| 
G|--------------------------------------------------------------------------|
C|--------------------------------------------------------------------------|

D|-19-17---------19-17----19-17---------19-17----19-------------------------| 
A|-------20-17~--------20-------20-15~--------20----19~---------------------|
F|--------------------------------------------------------------------------|
C|--------------------------------------------------------------------------| 
G|--------------------------------------------------------------------------|
C|--------------------------------------------------------------------------|


Repeat Pre-Chorus and Chorus

BRIDGE

Both Guitars 2x
D|------------------------------------------------------------------| 
A|------------------------------------------------------------------|
F|-------5-------------------------------5--------------------------|
C|-2-0-2-5--------------7\5-4------2-0-2-5---------2-0-2-7\5-4------| 
G|-2-0-2-3--------2-0-2-5\3-2------2-0-2-3---------2-0-2-5\3-2------|
C|-2-0-2----------2-0-2------------2-0-2-----------2-0-2------------|


Keyboard   
D|-12--12----12--1214--14----14--1410--10----10--1015--15--14/15\14-| 
A|-x---x-----x---x-x---x-----x---x-x---x-----x---x-x---x---x--x--x--|
F|-9---9-----9---9-11--11----11--117---7-----7---7-12--12--11/12\11-|
C|------------------------------------------------------------------| 
G|------------------------------------------------------------------|
C|------------------------------------------------------------------|

D|-12--12----12--1214--14----14--1410--10----10--1015--15--14/15\14-| 
A|-x---x-----x---x-x---x-----x---x-x---x-----x---x-x---x---x--x--x--|
F|-9---9-----9---9-11--11----11--117---7-----7---7-12--12--11/12\11-|
C|------------------------------------------------------------------| 
G|------------------------------------------------------------------|
C|------------------------------------------------------------------|

D|-12--12----12--1214--14----14--1414--14----14--1415--15--14--15---| 
A|-x---x-----x---x-x---x-----x---x-x---x-----x---x-x---x---x---x----|
F|-9---9-----9---9-11--11----11--1111--11----11--1112--12--11--12---|
C|------------------------------------------------------------------| 
G|------------------------------------------------------------------|
C|------------------------------------------------------------------|

D|-12--12----12--1214--14----14--1410-------------------------------| 
A|-x---x-----x---x-x---x-----x---x-x--------------------------------|
F|-9---9-----9---9-11--11----11--117--------------------------------|
C|------------------------------------------------------------------| 
G|------------------------------------------------------------------|
C|------------------------------------------------------------------|


Guitars Fade In
D|------------------------------------------------------------------| 
A|------------------------------------------------------------------|
F|---------------------------------4~-------------------------------|
C|------------------------~7-------4~-------------------------------| 
G|------------------------~5-------2~-------------------------------|
C|------------------------~0----------------------------------------|

Then Kick
D|------------------------------------------------------------------| 
A|------------------------------------------------------------------|
F|---------------------------------4~-------------------------------|
C|-2~--------------7~--------------4~--------------5~------7~-------| 
G|-2~--------------5~--------------2~--------------5~------7~-------|
C|-2~--------------0~------------------------------5~------7~-------|

D|------------------------------------------------------------------| 
A|------------------------------------------------------------------|
F|---------------------------------4--------------------------------|
C|-2~--------------7~--------------4--------------------------------| 
G|-2~--------------5~--------------2--------------------------------|
C|-2~--------------0~-----------------------------------------------|



Repeat CHORUS

Everything is the same in the final Chorus except:

Keyboard ending is the same as the intro.


And yer done.

Key:
* - Articfical Harmonic
/ - Slide up
\ - Slide down
x - Mute Note
~ - Hold


            
            
Suggest correction
Creating personal tab
Creating personal tab
You can edit any tab online and save it as your Personal.

You can edit, replace or remove any tab part or add personal notes – all changes will be seen only by you.

Personal tabs can be accessed anytime from any device, even offline.
Learn more »
comments
print report bad tab
1 comment total.
+1 reply
kvr2007 10 Mar 05, 2013 12:18 PM

Nicely done, thanks!

guest
You may want to rate the tab now too:
select rating
Wanna post a correction for this tab? Suggest correction