Oops, an error
Loading. Please wait.

Pussy tab

version 5
version 5

Whole song

Interactive

49 views 3 this week
no commentswrite comment
1 2 3 4 5
3 more votes to show rating
add to favorites
×
Save as Personal and add changes to this tab that will be seen only by you. Learn more ›
×
You can save this tab as Personal to edit and correct it or add notes. All changes will be seen only by you. Learn more »
launch autoscroll
font size
0
reset
how to read this tab
guitar tuner
backing track
0:00
0:00
edit
Autoscroll
slow
fast
+/-
esc
set tempo
stop
About this tab version
The verse whole verse is to play palm-mute. Was this info helpful? Yes No
[Intro]
D|----------------------|--------------------|--------------------|------------------------------| 
A|----------------------|--------------------|--------------------|------------------------------|
F|----------------------|--------------------|--4-4-4-4--4-4-4-4--|------------------------------|
C|----2-2-2-2--2-2-2-2--|--0-0-0-0--0-0-0-0--|--4-4-4-4--4-4-4-4--|--5-5-5-5--5/7-7-7------------|  
G|----2-2-2-2--2-2-2-2--|--0-0-0-0--0-0-0-0--|--2-2-2-2--2-2-2-2--|--5-5-5-5--5/7-7-7------------|
C|----2-2-2-2--2-2-2-2--|--0-0-0-0--0-0-0-0--|--------------------|--5-5-5-5--5/7-7-7------------|

D|----------------------|--------------------|---------------------|-----------------------------|
A|----------------------|--------------------|---------------------|-----------------------------|
F|----------------------|--------------------|--4-4-4-4--4-4-4-4---|-----------------------------|
C|----2-2-2-2--2-2-2-2--|--0-0-0-0--0-0-0-0--|--4-4-4-4--4-4-4-4---|--5-5-5-5--4-4-4-4-----------|
G|----2-2-2-2--2-2-2-2--|--0-0-0-0--0-0-0-0--|--2-2-2-2--2-2-2-2---|--5-5-5-5--4-4-4-4-----------|
C|----2-2-2-2--2-2-2-2--|--0-0-0-0--0-0-0-0--|---------------------|--5-5-5-5--4-4-4-4-----------|

D|----------------------|--------------------|--------------------|------------------------------| 
A|----------------------|--------------------|--------------------|------------------------------|
F|----------------------|--------------------|--4-4-4-4--4-4-4-4--|------------------------------|
C|----2-2-2-2--2-2-2-2--|--0-0-0-0--0-0-0-0--|--4-4-4-4--4-4-4-4--|--5-5-5-5--5/7-7-7------------|  
G|----2-2-2-2--2-2-2-2--|--0-0-0-0--0-0-0-0--|--2-2-2-2--2-2-2-2--|--5-5-5-5--5/7-7-7------------|
C|----2-2-2-2--2-2-2-2--|--0-0-0-0--0-0-0-0--|--------------------|--5-5-5-5--5/7-7-7------------|

D|----------------------|--------------------|---------------------|-----------------------------|
A|----------------------|--------------------|---------------------|-----------------------------|
F|----------------------|--------------------|--4-4-4-4--4-4-4-4---|-----------------------------|
C|----2-2-2-2--2-2-2-2--|--0-0-0-0--0-0-0-0--|--4-4-4-4--4-4-4-4---|--5-5-5-5--4-4-4-4-----------|
G|----2-2-2-2--2-2-2-2--|--0-0-0-0--0-0-0-0--|--2-2-2-2--2-2-2-2---|--5-5-5-5--4-4-4-4-----------|
C|----2-2-2-2--2-2-2-2--|--0-0-0-0--0-0-0-0--|---------------------|--5-5-5-5--4-4-4-4-----------|

[Verse]
  PM
D|-----------------------|--------------------|----------------------|---------------------------|
A|-----------------------|--------------------|----------------------|---------------------------|
F|-----------------------|--------------------|----------------------|---------------------------|
C|-----------------------|--------------------|----------------------|---------------------------|
G|-----------------------|--------------------|---2-2-2-2--2-2-2-2---|---------------------------|
C|----2-2-2-2--2-2-2-2---|--0-0-0-0--0-0-0-0--|----------------------|---5-5-5-5--7-7-7-7--------|

  PM
D|-----------------------|--------------------|----------------------------------------------------|
A|-----------------------|--------------------|----------------------------------------------------|
F|-----------------------|--------------------|----------------------------------------------------|
C|-----------------------|--------------------|----------------------------------------------------|
G|-----------------------|--------------------|---2-2-2-2--2-2-2-2--2-2-2-2--2-2-2-2---------------|
C|----2-2-2-2--2-2-2-2---|--0-0-0-0--0-0-0-0--|----------------------------------------------------|

D|-----------------------|--------------------|----------------------|---------------------------|
A|-----------------------|--------------------|----------------------|---------------------------|
F|-----------------------|--------------------|----------------------|---------------------------|
C|-----------------------|--------------------|----------------------|---------------------------|
G|-----------------------|--------------------|---2-2-2-2--2-2-2-2---|---------------------------|
C|----2-2-2-2--2-2-2-2---|--0-0-0-0--0-0-0-0--|----------------------|---5-5-5-5--7-7-7-7--------|
  PM
D|-----------------------|--------------------|----------------------------------------------------|
A|-----------------------|--------------------|----------------------------------------------------|
F|-----------------------|--------------------|----------------------------------------------------|
C|-----------------------|--------------------|----------------------------------------------------|
G|-----------------------|--------------------|---2-2-2-2--2-2-2-2--2-2-2-2--2-2-2-2---------------|
C|----2-2-2-2--2-2-2-2---|--0-0-0-0--0-0-0-0--|----------------------------------------------------|

[Pre-Chorus]
D|-----------------------------------------|--------------------|----------------------------------|
A|-----------------------------------------|--------------------|----------------------------------|
F|-----------------------------------------|--------------------|----------------------------------|
C|-----------------------------------------|--------------------|----------------------------------|
G|----3-3-3-3--3-3-3-3--3-3-3-3--3-3-3-3---|--0-0-0-0--0-0-0-0--|---9-9-9-9--9-9-9-9---------------|
C|-----------------------------------------|--------------------|---9-9-9-9--9-9-9-9---------------|
        Just a little bit................. Just a little bitch.............

[Chorus]
D|----------------------|--------------------|--------------------|------------------------------| 
A|----------------------|--------------------|--------------------|------------------------------|
F|----------------------|--------------------|--4-4-4-4--4-4-4-4--|------------------------------|
C|----2-2-2-2--2-2-2-2--|--0-0-0-0--0-0-0-0--|--4-4-4-4--4-4-4-4--|--5-5-5-5--5/7-7-7------------|  
G|----2-2-2-2--2-2-2-2--|--0-0-0-0--0-0-0-0--|--2-2-2-2--2-2-2-2--|--5-5-5-5--5/7-7-7------------|
C|----2-2-2-2--2-2-2-2--|--0-0-0-0--0-0-0-0--|--------------------|--5-5-5-5--5/7-7-7------------|

D|----------------------|--------------------|---------------------|-----------------------------|
A|----------------------|--------------------|---------------------|-----------------------------|
F|----------------------|--------------------|--4-4-4-4--4-4-4-4---|-----------------------------|
C|----2-2-2-2--2-2-2-2--|--0-0-0-0--0-0-0-0--|--4-4-4-4--4-4-4-4---|--5-5-5-5--4-4-4-4-----------|
G|----2-2-2-2--2-2-2-2--|--0-0-0-0--0-0-0-0--|--2-2-2-2--2-2-2-2---|--5-5-5-5--4-4-4-4-----------|
C|----2-2-2-2--2-2-2-2--|--0-0-0-0--0-0-0-0--|---------------------|--5-5-5-5--4-4-4-4-----------|

D|----------------------|--------------------|--------------------|------------------------------| 
A|----------------------|--------------------|--------------------|------------------------------|
F|----------------------|--------------------|--4-4-4-4--4-4-4-4--|------------------------------|
C|----2-2-2-2--2-2-2-2--|--0-0-0-0--0-0-0-0--|--4-4-4-4--4-4-4-4--|--5-5-5-5--5/7-7-7------------|  
G|----2-2-2-2--2-2-2-2--|--0-0-0-0--0-0-0-0--|--2-2-2-2--2-2-2-2--|--5-5-5-5--5/7-7-7------------|
C|----2-2-2-2--2-2-2-2--|--0-0-0-0--0-0-0-0--|--------------------|--5-5-5-5--5/7-7-7------------|

D|----------------------|--------------------|---------------------|-----------------------------|
A|----------------------|--------------------|---------------------|-----------------------------|
F|----------------------|--------------------|--4-4-4-4--4-4-4-4---|-----------------------------|
C|----2-2-2-2--2-2-2-2--|--0-0-0-0--0-0-0-0--|--4-4-4-4--4-4-4-4---|--5-5-5-5--4-4-4-4-----------|
G|----2-2-2-2--2-2-2-2--|--0-0-0-0--0-0-0-0--|--2-2-2-2--2-2-2-2---|--5-5-5-5--4-4-4-4-----------|
C|----2-2-2-2--2-2-2-2--|--0-0-0-0--0-0-0-0--|---------------------|--5-5-5-5--4-4-4-4-----------|

[Bridge]
D|-------------------------------------|
A|-------------------------------------|
F|-------------------------------------|
C|----------5--------------------7-5-4-|  x4
G|----2-5-2-3---------2-5-2------5-3-2-|
C|----2-5-2-----------2-5-2------------|

D|-----------------------------------------------------------------------------------------------|
A|-----------------------------------------------------------------------------------------------|
F|------------------------4------------------------------------------------------------4---------|
C|----2---------0---------4---------3/5------------------7---------2---------0---------4---------|
G|----2---------0---------2---------3/5------------------7---------2---------0---------2---------|
C|----2---------0-------------------3/5------------------7---------2---------0-------------------|
                                    (Let ring............)                            (Let ring......)

D|-----------------------------------------------------------------------------------------------|
A|-----------------------------------------------------------------------------------------------|
F|------------------------4------------------------------------------------------------4---------|
C|----2---------0---------4---------3/5------------------7---------2---------0---------4---------|
G|----2---------0---------2---------3/5------------------7---------2---------0---------2---------|
C|----2---------0-------------------3/5------------------7---------2---------0-------------------|
                                    (Let ring............)

[Chorus]
D|----------------------|--------------------|--------------------|------------------------------| 
A|----------------------|--------------------|--------------------|------------------------------|
F|----------------------|--------------------|--4-4-4-4--4-4-4-4--|------------------------------|
C|----2-2-2-2--2-2-2-2--|--0-0-0-0--0-0-0-0--|--4-4-4-4--4-4-4-4--|--5-5-5-5--5/7-7-7------------|  
G|----2-2-2-2--2-2-2-2--|--0-0-0-0--0-0-0-0--|--2-2-2-2--2-2-2-2--|--5-5-5-5--5/7-7-7------------|
C|----2-2-2-2--2-2-2-2--|--0-0-0-0--0-0-0-0--|--------------------|--5-5-5-5--5/7-7-7------------|

D|----------------------|--------------------|---------------------|-----------------------------|
A|----------------------|--------------------|---------------------|-----------------------------|
F|----------------------|--------------------|--4-4-4-4--4-4-4-4---|-----------------------------|
C|----2-2-2-2--2-2-2-2--|--0-0-0-0--0-0-0-0--|--4-4-4-4--4-4-4-4---|--5-5-5-5--4-4-4-4-----------|
G|----2-2-2-2--2-2-2-2--|--0-0-0-0--0-0-0-0--|--2-2-2-2--2-2-2-2---|--5-5-5-5--4-4-4-4-----------|
C|----2-2-2-2--2-2-2-2--|--0-0-0-0--0-0-0-0--|---------------------|--5-5-5-5--4-4-4-4-----------|

D|----------------------|--------------------|--------------------|------------------------------| 
A|----------------------|--------------------|--------------------|------------------------------|
F|----------------------|--------------------|--4-4-4-4--4-4-4-4--|------------------------------|
C|----2-2-2-2--2-2-2-2--|--0-0-0-0--0-0-0-0--|--4-4-4-4--4-4-4-4--|--5-5-5-5--5/7-7-7------------|  
G|----2-2-2-2--2-2-2-2--|--0-0-0-0--0-0-0-0--|--2-2-2-2--2-2-2-2--|--5-5-5-5--5/7-7-7------------|
C|----2-2-2-2--2-2-2-2--|--0-0-0-0--0-0-0-0--|--------------------|--5-5-5-5--5/7-7-7------------|

D|----------------------|--------------------|---------------------|-----------------------------|
A|----------------------|--------------------|---------------------|-----------------------------|
F|----------------------|--------------------|--4-4-4-4--4-4-4-4---|-----------------------------|
C|----2-2-2-2--2-2-2-2--|--0-0-0-0--0-0-0-0--|--4-4-4-4--4-4-4-4---|--5-5-5-5--4-4-4-4-----------|
G|----2-2-2-2--2-2-2-2--|--0-0-0-0--0-0-0-0--|--2-2-2-2--2-2-2-2---|--5-5-5-5--4-4-4-4-----------|
C|----2-2-2-2--2-2-2-2--|--0-0-0-0--0-0-0-0--|---------------------|--5-5-5-5--4-4-4-4-----------|


************************************

| /   Slide up
| PM  Palm mute

************************************

            
            
Suggest correction
Creating personal tab
Creating personal tab
You can edit any tab online and save it as your Personal.

You can edit, replace or remove any tab part or add personal notes – all changes will be seen only by you.

Personal tabs can be accessed anytime from any device, even offline.
Learn more »
Give kudos to tab author, rate the tab!
1 2 3 4 5
comments
print report bad tab
guest
You may want to rate the tab now too:
select rating
Wanna post a correction for this tab? Suggest correction