Oops, an error
Loading. Please wait.

Rammlied tab

version 2
version 2

Whole song

Interactive

5,861 views 12 this week
2 commentsread comments
1 2 3 4 5
1 last vote to show rating
add to favorites
×
Save as Personal and add changes to this tab that will be seen only by you. Learn more ›
×
You can save this tab as Personal to edit and correct it or add notes. All changes will be seen only by you. Learn more »
launch autoscroll
font size
0
reset
how to read this tab
guitar tuner
backing track
0:00
0:00
edit
Autoscroll
slow
fast
+/-
esc
set tempo
stop
There is some discussion as to whether the song is in drop d, or drop c, or that Richard
plays in Drop D and Paul in Drop C.  But I believe they both play in Drop D and
Richard's B string has a thicker string and may be tuned to C so he can play the gnarly 
riff during the "Manche Führen Manche Folgen" verse, so I've left that bit out, cause I don't
have a thicker gauge string on my B.  So enjoy this Drop D version!

Tuning: Drop D

Leiht Eure ohr einer legende...


  RAMM!!!!             STEIN!!!
E|----------------------------------------|
B|----------------------------------------|
G|----------------------------------------|
D|-2----5----3----0-----2----5----7---3h5-|
A|-2----5----3----0-----2----5----7---3h5-|
D|-2----5----3----0-----2----5----7---3h5-|

E|-------------------------------------------|
B|-------------------------------------------|
G|-------------------------------------------|
D|-2----5----3----0-----2----5----7---3h5----|
A|-2----5----3----0-----2----5----7---3h5----|
D|-2----5----3----0-----2----5----7---3h5/12-|


 RAMM!!!!                   STEIN!!!!
E|--------------------------------------------------------------------|
B|--------------------------------------------------------------------|
G|--------------------------------------------------------------------|
D|7-------7-------7/8\7------7------9/5\7------7-----5/9\7----7--7----|
A|5-------5-------5/6\5------5------7/3\5------5-----3/7\5----5--5----| x2
D|--0-0-0---0-0-0-------0-0-0--0-0-0-----0-0-0--0-0-0--------0--0-----|
pm: . . .   . . .       . . .  . . .     . . .  . . .        .  .

Manche Führen, Manche Folgen...

Bist du einsam und allein? Wir sind hier schalte ein...

 RAMM!!!!             STEIN!!!
E|----------------------------------------|
B|----------------------------------------|
G|----------------------------------------|
D|-2----5----3----0-----2----5----7---3h5-|
A|-2----5----3----0-----2----5----7---3h5-|
D|-2----5----3----0-----2----5----7---3h5-|



 RAMM!!!!                   STEIN!!!!
E|--------------------------------------------------------------------|
B|--------------------------------------------------------------------|
G|--------------------------------------------------------------------|
D|7-------7-------7/8\7------7------9/5\7------7-----5/9\7----7--7----|
A|5-------5-------5/6\5------5------7/3\5------5-----3/7\5----5--5----| x2
D|--0-0-0---0-0-0-------0-0-0--0-0-0-----0-0-0--0-0-0--------0--0-----|
pm: . . .   . . .       . . .  . . .     . . .  . . .        .  .


Manche Führen, Manche Folgen...


Bist du traurig, und allein? Wir sind zurück, schalte ein...


 RAMM!!!!             STEIN!!!
E|----------------------------------------|
B|----------------------------------------|
G|----------------------------------------|
D|-2----5----3----0-----2----5----7---3h5-|
A|-2----5----3----0-----2----5----7---3h5-|
D|-2----5----3----0-----2----5----7---3h5-|

 RAMM!!!!                   STEIN!!!!
E|--------------------------------------------------------------------|
B|--------------------------------------------------------------------|
G|--------------------------------------------------------------------|
D|7-------7-------7/8\7------7------9/5\7------7-----5/9\7----7--7----|
A|5-------5-------5/6\5------5------7/3\5------5-----3/7\5----5--5----| x2
D|--0-0-0---0-0-0-------0-0-0--0-0-0-----0-0-0--0-0-0--------0--0-----|
pm: . . .   . . .       . . .  . . .     . . .  . . .        .  .


E|----------------------------------------------------------------------|
B|----------------------------------------------------------------------|
G|----------------------------------------------------------------------|
D|7-------7-------7/8\7------7------9/5\7------7-----5/9\7------7--5----|
A|5-------5-------5/6\5------5------7/3\5------5-----3/7\5------5--3----|
D|--0-0-0---0-0-0-------0-0-0--0-0-0-----0-0-0--0-0-0------0-0-0--------|
pm: . . .   . . .       . . .  . . .     . . .  . . .      . . .

EIN WEG!! EIN ZIEL!! EIN MOTIV!
E|-----------------------------------------------|
B|-----------------------------------------------|
G|-----------------------------------------------|
D|-----------------------------------------------|
A|-----------------------------------------------|
D|0-0-0--0-0-0---0-0-0--0-0-0---0-0-0--0-0-0-----|
  . . .  . . .   . . .  . . .   . . .  . . .

RAMM!!!  STEIN!!!
E|---------------|
B|---------------|
G|---------------|
D|---------------|
A|---------------|
D|0-0-0--0-0-0---|
  . . .  . . .

EINE RICHTUNG!! Ein Gefühl, Aus Fleisch und Blut, Ein Kollektiv!

E|------------------------------------------------------------|
B|------------------------------------------------------------|
G|------------------------------------------------------------|
D|------------------------------------------------------------|
A|------------------------------------------------------------|
D|0-0-0--0-0-0---0-0-0--0-0-0---0-0-0--0-0-0---0-0-0--0-0-0---|
  . . .  . . .   . . .  . . .   . . .  . . .   . . .  . . .

  Break: (Repeat until Chorus)
E|--------------------------------------------------------------------------|
B|--------------------------------------------------------------------------|
G|-5-5-5-5--5-5-5-5--5-5-5-5--5-5-5-5--5-5-5-5--5-5-5-5--5-5-5-5--5-5-5-5---|
D|-x-x-x-x--x-x-x-x--x-x-x-x--x-x-x-x--x-x-x-x--x-x-x-x--x-x-x-x--x-x-x-x---|
A|-3-3-3-3--3-3-3-3--3-3-3-3--3-3-3-3--3-3-3-3--3-3-3-3--3-3-3-3--3-3-3-3---|
D|--------------------------------------------------------------------------|


Wer wartet mit Besonnenheit
der wird belohnt zur rechten Zeit
Nun, das Warten hat ein Ende
Leiht euer Ohr einer Legende

(all palm mutes in sets of 4)
 RAMM!!!!                   STEIN!!!!
E|-------------------------------------------------------------------|
B|-------------------------------------------------------------------|
G|-------------------------------------------------------------------|
D|7--------7-----7/8\7------7-------9/5\7------7------5/9\7-----7--7-|
A|5--------5-----5/6\5------5-------7/3\5------5------3/7\5-----5--5-|
D|--0-0-0---0-0-0------0-0-0---0-0-0------0-0-0--0-0-0---------0--0--|
pm: . . .   . . .      . . .   . . .      . . .  . . .         .  .


 RAMM!!!!                   STEIN!!!!
E|----------------------------------------------------------------------|
B|----------------------------------------------------------------------|
G|----------------------------------------------------------------------|
D|7--------7---------7/8\7--------7--------9/5\7-------7--------5/9\7---|
A|5--------5---------5/6\5--------5--------7/3\5-------5--------3/7\5---|
D|--0-0-0-0---0-0-0-0------0-0-0-0--0-0-0-0-----0-0-0-0--0-0-0-0--------|
pm: . . . .   . . . .      . . . .  . . . .     . . . .  . . . .

ENDING RIFF

E|---------------------------------------------------|
B|---------------------------------------------------|
G|---------------------------------------------------|
D|7---7--7--------7--------7--7--7-7-7-7-7-----------|
A|5---5--5--------5--------5--5--5-5-5-5-5-----------|
D|--0------0-0-0-0--0-0-0-0--0--0--------------------|
    .      . . . .  . . . .  .  .






That's it really kick ass song, On the main chorus there should be 4 palm mutes between
each set, but space only allowed 3.  So keep that as a mental note.  I love the new
album, think there's a lot of bad ass songs on there.  Enjoy the Tab!

            
            
Suggest correction
Creating personal tab
Creating personal tab
You can edit any tab online and save it as your Personal.

You can edit, replace or remove any tab part or add personal notes – all changes will be seen only by you.

Personal tabs can be accessed anytime from any device, even offline.
Learn more »
Give kudos to tab author, rate the tab!
1 2 3 4 5
comments
print report bad tab
2 comments total.
0 reply
AlcatraZ2805 10 Feb 09, 2014 07:58 AM

Whenever this should be played

E|----------------------------------------|
B|----------------------------------------|
G|----------------------------------------|
D|-2----5----3----0-----2----5----7---3h5-|
A|-2----5----3----0-----2----5----7---3h5-|
D|-2----5----3----0-----2----5----7---3h5-|

E|-------------------------------------------|
B|-------------------------------------------|
G|-------------------------------------------|
D|-2----5----3----0-----2----5----7---3h5----|
A|-2----5----3----0-----2----5----7---3h5----|
D|-2----5----3----0-----2----5----7---3h5/12-|


It´s better to play it this way
E|----------------------------------------|
B|----------------------------------------|
G|----------------------------------------|
D|-0----5----3----2-----0----5----7---3h5-|
A|-0----5----3----2-----0----5----7---3h5-|
D|-0----5----3----2-----0----5----7---3h5-|

E|-------------------------------------------|
B|-------------------------------------------|
G|-------------------------------------------|
D|-0----5----3----2-----0----5----7---3h5----|
A|-0----5----3----2-----0----5----7---3h5----|
D|-0----5----3----2-----0----5----7---3h5/12-|

guest
You may want to rate the tab now too:
select rating
Wanna post a correction for this tab? Suggest correction