Oops, an error
Loading. Please wait.
We have an official Rammstein tab made by UG professional guitarists. Check out the tab »
×

Rammstein tab

version 2
version 2

Whole song

  • I make my tabs neat and very accurate by observing... Show more
640 views 1 this week
no commentswrite comment
1 2 3 4 5
2 more votes to show rating
add to favorites
×
Save as Personal and add changes to this tab that will be seen only by you. Learn more ›
×
You can save this tab as Personal to edit and correct it or add notes. All changes will be seen only by you. Learn more »
launch autoscroll
font size
0
reset
how to read this tab
guitar tuner
backing track
0:00
0:00
edit
Autoscroll
slow
fast
+/-
esc
set tempo
stop
Author
Difficulty
About this tab version
I make my tabs neat and very accurate by observing very carefully what these very artists do live. Was this info helpful? Yes No
Song: Rammstein
Artist: Rammstein
Tuning: Standard

Main Riff:
            x3
e|----------||-----|
B|----------||-----|
G|----------||-----| Repeat as needed
D|------9/10||-10/9|
A|------7/8-||--8/7|
E|-0-0------||-----|
   . .

Bridge:

e|---------------------------|
B|---------------------------|
G|---------------------------| x2
D|-5--2------------------5--2|
A|-5--2------------------5--2|
E|-3--0-----0-0-0-0-0-0--3--0|
            . . . . . .

Solo 1:

e|-----------------------------------------------------------------------------|
B|-----------------------------------------------------------------------------|
G|-9----9----9--12/7--7/9----9--9--14--17--17/9--9--9--12--12/7--7/9---9---4--5|
D|-X----X----X---X-X--X X----X--X---X---X---X-X--X--X--X---X-X---X-X---X---X--X|
A|-7----7----7--10/5--5/7----7--7--12--15--15/7--7--7--10--10/5--5/7---7---2--3|
E|-----------------------------------------------------------------------------|

Solo 2:
                    x3
e|------------------||----------------|
B|-7p0-8p0-10p0-8p0-||-7p0-8p0-7p0-8p0|
G|------------------||----------------| x3
D|------------------||----------------|
A|------------------||----------------|
E|------------------||----------------|


Then...

e|-----------------------------------------------------------------------------|
B|-7p0-8p0-10p0-8p0--7p0-8p0-10p0-8p0------------------------------------------|
G|-------------------------------------7p0-8p0-10p0-8p0--0--7-X-7h8p7~---7h8p7~|
D|-----------------------------------------------------------------------------|
A|-----------------------------------------------------------------------------|
E|-----------------------------------------------------------------------------|
Suggest correction
Creating personal tab
Creating personal tab
You can edit any tab online and save it as your Personal.

You can edit, replace or remove any tab part or add personal notes – all changes will be seen only by you.

Personal tabs can be accessed anytime from any device, even offline.
Learn more »
Give kudos to tab author, rate the tab!
1 2 3 4 5
comments
print report bad tab
guest
You may want to rate the tab now too:
select rating
Wanna post a correction for this tab? Suggest correction