Oops, an error
Loading. Please wait.

Rammvier Ramm4 tab

version 1
version 1

Whole song

Interactive

10,288 views 123 this week
3 commentsread comments
1 2 3 4 5
x 7
add to favorites
×
Save as Personal and add changes to this tab that will be seen only by you. Learn more ›
×
You can save this tab as Personal to edit and correct it or add notes. All changes will be seen only by you. Learn more »
launch autoscroll
font size
0
reset
how to read this tab
guitar tuner
edit
Autoscroll
slow
fast
+/-
esc
set tempo
stop
Artist: Rammstein
Song: Rammvier / Ramm4
Tuning : Drop D / DADGBE
Time Signature : 12/8
Tempo : 132 BPM

As the song has not been officially released, this has been transcribed from the live version of the first
performance, because of this I have corrected what I thought were misplayed notes. Once an official
version is released, I'll update the tab accordingly.

"Gods of Metal" Live performance version - https://www.youtube.com/watch?v=ZXw5Rp1Xz2M

Main Riff x 8
Hold x 2
Intro x 4

8 bar rest;

Verse x 2
Buildup x 1
Main Riff x 4
Hold x 1

Verse x 2
Buildup x 1
Main Riff x 8

8 bar rest;
Solo x 1
Post Solo Nana x 2
Post Solo Buildup x 2
Main Riff x 8

At the end of each buildup (excluding post solo),
Two bars of the main riff are played without distortion.


[Main Riff]

PM
e|------------------------|-----------------------|
B|------------------------|-----------------------|
G|------------------------|-----------------------|
D|5---5-----5-5---5-----5-5---5-8---8-3---3-6---6-|
A|5---5-----5-6---6-----6-7---7-8---8-3---3-6---6-|
D|5---5-----5-5---5-----5-5---5-8---8-3---3-6---6-|
PM        X           X

On each "X", mute the string with your right palm and lightly mute the neck strings with your left palm
without actually strumming a note. Lefties, vice versa.
[Hold]
e|------------|-----------|-----------|-----------|
B|------------|-----------|-----------|-----------|
G|------------|-----------|-----------|-----------|
D|5-----------|-----------|-----------|-----------|
A|5-----------|-----------|-----------|-----------|
D|5-----------|-----------|-----------|-----------|


[Verse]

e|------------------------|-----------------------|-----------------------|-----------------------|
B|------------------------|-----------------------|-----------------------|-----------------------|
G|------------------------|-----------------------|-----------------------|-----------------------|
D|5---5-----5-5---5-----5-5---5-----5-8---8-3---3-3-/-5-----5-5---5-----5-5---5-----5-5---5-5---5-|
A|5---5-----5-5---5-----5-5---5-----5-8---8-3---3-3-/-5-----5-5---5-----5-5---5-----5-5---5-5---5-|
D|5---5-----5-5---5-----5-5---5-----5-8---8-3---3-3-/-5-----5-5---5-----5-5---5-----5-5---5-5---5-|
PM        X           X           X                       X           X           X

e|------------------------|-----------------------|-----------------------|-----------------------|
B|------------------------|-----------------------|-----------------------|-----------------------|
G|----------------------3-3---3-------------------|-----------------------|-----------------------|
D|3---3-----3-3---3-----3-3---3-----3-3---3-3---3-3-/-5-----5-5---5-----5-5---5-----5-8---8-3---3-|
A|3---3-----3-3---3-----1-1---1-----3-3---3-3---3-3-/-5-----5-5---5-----5-5---5-----5-8---8-3---3-|
D|3---3-----3-3---3-------|---------3-3---3-3---3-3-/-5-----5-5---5-----5-5---5-----5-8---8-3---3-|
PM        X           X           X                       X           X           X

[Buildup]

e|------------|-----------|-----------|-----------|-----------|-----------|
B|------------|-----------|-----------|-----------|-----------|-----------|
G|------------|-----------5-----------7-----------|-----------|-----------|
D|1-----------0-----------5-----------7-----------3-----------|-----------|
A|1-----------0-----------3-----------5-----------3-----------|-----------|
D|1-----------0-----------|-----------|-----------3-----------|-----------|


[Solo]

e|------------------------|-----------------------|-----------------------|-----------------------|
B|------------------------|-----------------------|-----------------------|-----------------------|
G|------------------------|-----------------------|-----------------------|-----------------------|
D|------------5-----------|-----------------------|-----------5-----------|-----------------------|
A|------------------------4-----------------------|-----------------------4-----------------------|
D|5-----------------------|---------7-4-----7-----5-----------------------|---------7-4-----7-----|

e|------------------------|-----------------------|-----------------------|-----------------------|
B|------------------------|-----------------------|-----------------------|-----------------------|
G|------------------------|-----------------6-----7-----------------------|-----------------------|
D|7---------------------7-8-----7-----5-----------|-----------5-----------|-----------------------|
A|------------------------|-----------------------|-----------------------|-----------------------|
D|------------------------|-----------------------|-----------------------|-----------------------|


[Post Solo NaNa]
                                                                       
e|------------|-----------|-----------|-----------|-----------|-----------|-----------|-----------|
B|------------|-----------|-----------|-----------|-----------|-----------|-----------|-----------|
G|------------|-----------|-----------|-----------|-----------|-----------|-----------|-----------|
D|------------|-----------|-----------|-----------|-----------|-----------|-----------|-----------|
A|------------|-----------|-----------|-----------|-----------|-----------|-----------|-----------|
D|5-----------|-----------5-----------|-----------3-----------|-----------5-----------|-----------|


[Post Solo Buildup]

e|------------|-----------|-----------|-----------|-----------|-----------|-----------|-----------|
B|------------|-----------|-----------|-----------|-----------|-----------|-----------|-----------|
G|------------|-----------5-----------7-----------|-----------|-----------|-----------|-----------|
D|1-----------0-----------5-----------7-----------3-----------8--6--5--3--5-----------|-----------|
A|1-----------0-----------3-----------5-----------3-----------8--6--5--3--5-----------|-----------|
D|1-----------0-----------|-----------|-----------3-----------8--6--5--3--5-----------|-----------|

            
            
Suggest correction
Creating personal tab
Creating personal tab
You can edit any tab online and save it as your Personal.

You can edit, replace or remove any tab part or add personal notes – all changes will be seen only by you.

Personal tabs can be accessed anytime from any device, even offline.
Learn more »
comments
print report bad tab
3 comments total.
0 reply
CedHild 32 Jun 12, 2016 10:12 AM

The second part of the solo is on the D string, not G

0 reply
InstantMix 40 Jun 14, 2016 05:21 AM

Fixed; also updated the chorus to reflect the true play. Was unsure wether it was poor playing on the first night of the song; but it seems like it's definitely correct now.

0 reply
jgraber02 10 Jul 17, 2017 11:34 AM

Post solo buildup- Correct me if I'm wrong but the DAD 6 should be replaced with a DAD 7. That's my preference though.

guest
You may want to rate the tab now too:
select rating
Wanna post a correction for this tab? Suggest correction