Oops, an error
Loading. Please wait.

Rammvier Ramm4 tab

version 2
version 2

Whole song

Interactive

5,983 views 57 this week
no commentswrite comment
1 2 3 4 5
x 3
add to favorites
×
Save as Personal and add changes to this tab that will be seen only by you. Learn more ›
×
You can save this tab as Personal to edit and correct it or add notes. All changes will be seen only by you. Learn more »
launch autoscroll
font size
0
reset
how to read this tab
guitar tuner
edit
Autoscroll
slow
fast
+/-
esc
set tempo
stop
Rammvier - Rammstein

Tabbed by Josh Castle (JoshiiZK)
I have a cover on my youtube account : https://www.youtube.com/watch?v=2z56bppWqHo


Drop D

[Intro] x7
 
e|-------------------------------------|
B|-------------------------------------|
G|-------------------------------------|
D|-55-x-----------8-3-6-5--------------|
A|-55-x-66-x-77-x-8-3-6-5--------------|
D|-55-x-55-x-55-x-8-3-6-5--------------|

e|-------------------------------------|
B|-------------------------------------|
G|-------------------------------------|
D|-55-x-----------8-3-6-5--------------|
A|-55-x-66-x-77-x-8-3-6-5--------------|
D|-55-x-55-x-55-x-8-3-6-5--------------|


[Riff] x3

On 4th end on the 6th fret and mute quickly.
e|-------------------------------------|
B|-------------------------------------|
G|-------------------------------------|
D|-55-x-----------8-3-6-5--------------|
A|-55-x-66-x-77-x-8-3-6-5--------------|
D|-55-x-55-x-55-x-8-3-6-5--------------|


[Verse] x2
 
e|---------------------------------------------------------------|
B|---------------------------------------------------------------|
G|---------------------------------------------------------------|
D|---------------------------------------------------------------|
A|5-55-5-5-8-3-3-3-5-55-5-5-55-55-5-3-33-3-8-8-3-33-3-3-5-55-5-5-|
D|5-55-5-5-8-3-3-3-5-55-5-5-55-55-5-3-33-3-8-8-3-33-3-3-5-55-5-5-|


[Chorus]

e|---------------------------------------------------------------|
B|---------------------------------------------------------------|
G|---------------------------------------------------------------|
D|1----0-----10-----12-----3-------------------------------------|
A|1----0-----10-----12-----3-------------------------------------|
D|1----0-----10-----12-----3-------------------------------------|


[Main riff]

e|-------------------------------------|
B|-------------------------------------|
G|-------------------------------------|
D|-55-x-----------8-3-6-5--------------|
A|-55-x-66-x-77-x-8-3-6-5--------------|
D|-55-x-55-x-55-x-8-3-6-5--------------|


[Main riff]
(once again)

(JA, NEIN, RAMM-STEIN)
e|-------------------------------------|
B|-------------------------------------|
G|-------------------------------------|
D|-55-x-----------8-3-6-5--------------|
A|-55-x-66-x-77-x-8-3-6-5--------------|
D|-55-x-55-x-55-x-8-3-6-5--------------|


[Verse] x2

e|---------------------------------------------------------------|
B|---------------------------------------------------------------|
G|---------------------------------------------------------------|
D|---------------------------------------------------------------|
A|5-55-5-5-8-3-3-3-5-55-5-5-55-55-5-3-33-3-8-8-3-33-3-3-5-55-5-5-|
D|5-55-5-5-8-3-3-3-5-55-5-5-55-55-5-3-33-3-8-8-3-33-3-3-5-55-5-5-|


[Chorus]

e|---------------------------------------------------------------|
B|---------------------------------------------------------------|
G|---------------------------------------------------------------|
D|1----0-----10-----12-----3-------------------------------------|
A|1----0-----10-----12-----3-------------------------------------|
D|1----0-----10-----12-----3-------------------------------------|


[Main riff]

e|----------------------------------------|
B|----------------------------------------|
G|----------------------------------------|
D|-5-5-x-------------8-3-6-5--------------|
A|-5-5-x-6-6-x-7-7-x-8-3-6-5--------------|
D|-5-5-x-5-5-x-5-5-x-8-3-6-5--------------|


[Main riff]
(once again)

(JA, NEIN, RAMM-STEIN)
e|----------------------------------------|
B|----------------------------------------|
G|----------------------------------------|
D|-5-5-x-------------8-3-6-5--------------|
A|-5-5-x-6-6-x-7-7-x-8-3-6-5--------------|
D|-5-5-x-5-5-x-5-5-x-8-3-6-5--------------|


Quiet Section

[Mini solo]
Watch your timing here.

e|---------------------------------------------------------------|
B|---------------------------------------------------------------|
G|---------------------------------------------------------------|
D|----5------------------5-----------------7--7---8--7--5---11---|
A|-------4------------------4------------------------------------|
D|-5--------5--4--7---5---------5---4---7------------------------|

e|---------------------------------------------------------------|
B|---------------------------------------------------------------|
G|---------------------------------------------------------------|
D|-12----5-------------------------------------------------------|
A|---------------------------------------------------------------|
D|-----------5-------5-------3--------5--------------------------|


[Chorus] x2

e|---------------------------------------------------------------|
B|---------------------------------------------------------------|
G|---------------------------------------------------------------|
D|---------------------------------------------------------------|
A|-1-------0---------10--------12-----3-------8--7--5--3--5------|
D|-1-------0---------10--------12-----3-------8--7--5--3--5------|


[Main riff]

e|----------------------------------------|
B|----------------------------------------|
G|----------------------------------------|
D|-5-5-x-------------8-3-6-5--------------|
A|-5-5-x-6-6-x-7-7-x-8-3-6-5--------------|
D|-5-5-x-5-5-x-5-5-x-8-3-6-5--------------|

e|----------------------------------------|
B|----------------------------------------|
G|----------------------------------------|
D|-5-5-x-------------8-3-6-5--------------|
A|-5-5-x-6-6-x-7-7-x-8-3-6-5--------------|
D|-5-5-x-5-5-x-5-5-x-8-3-6-5--------------|

Hope it helps!
Please leave me a comment and check out my video of the cover


************************************

| x  Mute note

************************************

            
            
Suggest correction
Creating personal tab
Creating personal tab
You can edit any tab online and save it as your Personal.

You can edit, replace or remove any tab part or add personal notes – all changes will be seen only by you.

Personal tabs can be accessed anytime from any device, even offline.
Learn more »
Give kudos to tab author, rate the tab!
1 2 3 4 5
comments
print report bad tab
guest
You may want to rate the tab now too:
select rating
Wanna post a correction for this tab? Suggest correction