Oops, an error
Loading. Please wait.

Rammvier Ramm4 tab

version 3
version 3

Whole song

Interactive

484 views 3 this week
no commentswrite comment
1 2 3 4 5
3 more votes to show rating
add to favorites
×
Save as Personal and add changes to this tab that will be seen only by you. Learn more ›
×
You can save this tab as Personal to edit and correct it or add notes. All changes will be seen only by you. Learn more »
launch autoscroll
font size
0
reset
how to read this tab
guitar tuner
edit
Autoscroll
slow
fast
+/-
esc
set tempo
stop
Visit my video lesson of Ramm 4: https://www.youtube.com/watch?v=terXFt_uAYM
Visit my cover/Playthrough of Ramm4: https://www.youtube.com/watch?v=UI9JORif91c



[Intro/Mainriff] 
 
e|--------------------------------------|
B|--------------------------------------|
G|--------------------------------------|
D|-55-x-----------8-3-6-5-----------5---|
A|-55-x-66-x-77-x-8-3-6-5-----------5---|
D|-55-x-55-x-55-x-8-3-6-5-----------5---|


[Verse]
 
e|---------------------------------------------------------|
B|---------------------------------------------------------|
G|---------------------------------------------------------|
D|---------------------------------------------------------|
A|5-5-5-5-8-3-3-3-5-5-5-5-5-5-5-3-3-3-8-8-3-3-3-3-5-55-5-5-|
D|5-5-5-5-8-3-3-3-5-5-5-5-5-5-5-3-3-3-8-8-3-3-3-3-5-55-5-5-|


[Chorus]

e|---------------------------------------------------------------|
B|---------------------------------------------------------------|
G|---------------------------------------------------------------|
D|1----0-----10-----12-----3-------------------------------------|
A|1----0-----10-----12-----3-------------------------------------|
D|1----0-----10-----12-----3-------------------------------------|


[Main Riff] 
 
e|--------------------------------------|
B|--------------------------------------|
G|--------------------------------------|
D|-55-x-----------8-3-6-5-----------5---|
A|-55-x-66-x-77-x-8-3-6-5-----------5---|
D|-55-x-55-x-55-x-8-3-6-5-----------5---|


[Verse]
 
e|---------------------------------------------------------|
B|---------------------------------------------------------|
G|---------------------------------------------------------|
D|---------------------------------------------------------|
A|5-5-5-5-8-3-3-3-5-5-5-5-5-5-5-3-3-3-8-8-3-3-3-3-5-55-5-5-|
D|5-5-5-5-8-3-3-3-5-5-5-5-5-5-5-3-3-3-8-8-3-3-3-3-5-55-5-5-|


[Chorus]

e|---------------------------------------------------------------|
B|---------------------------------------------------------------|
G|---------------------------------------------------------------|
D|1----0-----10-----12-----3-------------------------------------|
A|1----0-----10-----12-----3-------------------------------------|
D|1----0-----10-----12-----3-------------------------------------|


[Main Riff] 
 
e|--------------------------------------|
B|--------------------------------------|
G|--------------------------------------|
D|-55-x-----------8-3-6-5-----------5---|
A|-55-x-66-x-77-x-8-3-6-5-----------5---|
D|-55-x-55-x-55-x-8-3-6-5-----------5---|


[Keyboard Vocal Interlude] 

No Guitar 


[Guitar solo/Singing „Nana“]

e|---------------------------------------------------------------|
B|---------------------------------------------------------------|
G|---------------------------------------------------6--7--------|
D|----------------------------------------7--8--7--5-------5-----|
A|---10--4--------------10---4-----------------------------------|
D|-5--------7--4--7---5---------7---4---7------------------------|

e|---------------------------------------------------------------|
B|---------------------------------------------------------------|
G|---------------------------------------------------------------|
D|---5-----------------------------------------------------------|
A|---------------------------------------------------------------|
D|-------5-------5-------3--------5------------------------------|


[Bridge] End of Singing

e|---------------------------------------------------------------|
B|---------------------------------------------------------------|
G|---------------------------------------------------------------|
D|---------------------------------------------------------------|
A|-1-------0---------10--------12-----3-------8--7--5--3--5------|
D|-1-------0---------10--------12-----3-------8--7--5--3--5------|

e|---------------------------------------------------------------|
B|---------------------------------------------------------------|
G|---------------------------------------------------------------|
D|---------------------------------------------------------------|
A|-1-------0---------10---13--12--8--3-------8--7--5--3--5-------|
D|-1-------0---------10---13--12--8--3-------8--7--5--3--5-------|


[Main Riff] 
 
e|--------------------------------------|
B|--------------------------------------|
G|--------------------------------------|
D|-55-x-----------8-3-6-5-----------5---|
A|-55-x-66-x-77-x-8-3-6-5-----------5---|
D|-55-x-55-x-55-x-8-3-6-5-----------5---|

Structure:(Live Hellfest 2016)

Intro
Verse
Chorus
Mainriff
Verse
Chorus
Mainriff
Keyboard/Vocal Interlude
Guitar Solo
Singing „Nana“
Bridge
Mainriff



************************************

| x  Dead note

************************************
Suggest correction
Creating personal tab
Creating personal tab
You can edit any tab online and save it as your Personal.

You can edit, replace or remove any tab part or add personal notes – all changes will be seen only by you.

Personal tabs can be accessed anytime from any device, even offline.
Learn more »
Give kudos to tab author, rate the tab!
1 2 3 4 5
comments
print report bad tab
guest
You may want to rate the tab now too:
select rating
Wanna post a correction for this tab? Suggest correction