Oops, an error
Loading. Please wait.
We have an official Reise Reise tab made by UG professional guitarists. Check out the tab »
×
785 views 12 this week
no commentswrite comment
1 2 3 4 5
2 more votes to show rating
add to favorites
×
Save as Personal and add changes to this tab that will be seen only by you. Learn more ›
×
You can save this tab as Personal to edit and correct it or add notes. All changes will be seen only by you. Learn more »
launch autoscroll
font size
0
reset
guitar tuner
backing track
0:00
0:00
edit
Autoscroll
slow
fast
+/-
esc
set tempo
stop
Tabbed by: Stancranford
E-mail: simonhawkinsuk@gmail.com

-------------------------------------------------------------------------------
                             Track 1 - Reise, Reise
-------------------------------------------------------------------------------

Tuning: CGCF

Main Riff/Chorus

F|----------------------------------------------|
C|----------------------------------------------|
G|-----------------------------------/4-----4\--|
C|-1-----4-----8-----6-----1--------------------|

Heavy Riff

F|---------------------------|
C|---------------------------|
G|---------------------------|
C|-1-0-1--1-0-1-1-0-1--0-1-0-|

Verse

F|-------------------------|
C|-------------------------|
G|-------------------------|
C|-1-0-1---1-1-0-1--0-1-0--|


Alternative Main Riff

F|----------------------------------------------|
C|----------------------------------------------|
G|----------------------------------/4---4--4h6-|
C|-1-----4-----8-----6-----1--------------------|



Order:
Synth Intro
Main Riff x 1
Heavy Riff x 4
Verse x 4
Rest
Chorus x 1
Alternative Main Riff x 1
Heavy Riff x 4
Verse x 4
Rest
Chorus x 1
Alternative Main Riff x 1
Rest
Main Riff x 1
Alternative Main Riff x 2


| /  slide up
| \  slide down
| h  hammer-on

===============================================================================

-------------------------------------------------------------------------------
                             Track 2 - Mein Teil
-------------------------------------------------------------------------------

Tuning: CGCF

Main Riff/Verse

F|---------------------------|
C|---------------------------|
G|---------------------------|
C|-2-0-2-2-0-2-5-2-0-2-2-0-2-|

Riff Fill 1

F|-------------------------|
C|-------------------------|
G|-------------------------|
C|-2-2-2-0-2-5-2-0-2-2-0-2-|

Riff Fill 2

F|-------------------------|
C|-------------------------|
G|-------------------------|
C|-2-0-2-2-0-2-2-0-2-2-0-2-|

Bridge
                                  x3
F|---------------------------------|---------------------------------------|
C|---------------------------------|---------------------------------------|
G|---------------------------------|---------------------------------------|
C|-------------2-0-2-5-2-0-2-2-0-2-|-------2-2-2-2-2-2-2-2-2-2-2-2-2-2-2-2-|

Chorus
                                   x3
F|-----------------------------------|
C|-----------------------------------|
G|-----------------------------------|
C|-2-0-2-2-0-2-5-2-0-2---0-----3-----|

F|-----------------------------------|
C|-----------------------------------|
G|-----------------------------------|
C|-2-0-2-2-0-2-5-2-0-2---3-----0-----|

Breakdown

F|-----------------------------------------------------------------|
C|-----------------------------------------------------------------|
G|-------------------------0-0-0-0---------------------------------|
C|-2-2-2-2-2-2-2-2-3-3-3-3---------2-2-2-2-2-2-2-2-3-3-3-3-0-0-0-0-|

End

F|----|
C|----|
G|----|
C|-2--|


Order:
Main Riff x 3
Riff Fill 1 x 1
Main Riff x 2
Riff Fill 2 x 2
Verse x 9
Bridge x 1
Chorus x 1
Verse x 9
Breakdown x 2
Bridge x 1
Chorus x 1
Rest
Main Riff x 8
Chorus x 2
End x 1

===============================================================================

-------------------------------------------------------------------------------
                             Track 3 - Dalai Lama
-------------------------------------------------------------------------------

Tuning: CGCF

Heavy Riff/Chorus
                            x3
F|----------------------------|------------------------|
C|----------------------------|------------------------|
G|----------------------------|------------------------|
C|-0-0--0-0--0-0-0-0-0--0-6p5-|-0-0--0-0--0-0-0-0--6---|

Bridge 1

F|---------------------------------|----------------------------|
C|---------------------------------|----------------------------|
G|---------------------------------|----------------------------|
C|-8-8-8-8-8-8-8-7-5-5-5-5-7-7-7-7-|-0-0--0-0--0-0-0-0-0--0-6p5-|

F|----------------------------|---------------------------------------|
C|----------------------------|---------------------------------------|
G|----------------------------|---------------------------------------|
C|-3-3--3-3--3-3-3-3-3--3-6p5-|-8-8-8-8-8-8-8-7-5-5-5-5-7-7-7-7-7-7-7-|

Bridge 2

F|---------------------------------|----------------------------|
C|---------------------------------|----------------------------|
G|---------------------------------|----------------------------|
C|-8-8-8-8-8-8-8-7-5-5-5-5-7-7-7-7-|-0-0--0-0--0-0-0-0-0--0-6p5-|

F|----------------------------|--------------------------------|
C|----------------------------|--------------------------------|
G|----------------------------|--------------------------------|
C|-3-3--3-3--3-3-3-3-3--3-6p5-|-8-8-8-8-8-8-8-7-5-5-5-5-7-7----|

Alternate Chorus Riff
                                                         x2
F|----------------------------|----------------------------|------------------------|
C|----------------------------|----------------------------|------------------------|
G|----------------------------|----------------------------|------------------------|
C|------0-0--0-0-0-0-0--0-6p5-|-0-0--0-0--0-0-0-0-0--0-6p5-|-0-0--0-0--0-0-0-0--6---|

End

F|-----|
C|-----|
G|-----|
C|-0-0-|

Order:
No Bass until 1st Heavy Part
Heavy Riff x 2
Rest
Heavy Riff x 2
Bridge 1 x 1
Chorus x 2
Rest
Heavy Riff x 2
Bridge 2 x 1
Alternative Chorus Riff x 1
Chorus x 5
Rest
Chorus x 2
End x 1

| p  pull-off

===============================================================================

-------------------------------------------------------------------------------
                             Track 4 - Keine Lust
-------------------------------------------------------------------------------

Tuning: CGCF

Intro

F|-----|
C|-----|
G|-5---|
C|-----|

Main Riff
                      x3
F|----------------------|----------------------|
C|----------------------|----------------------|
G|----------------------|-----------------6--3-|
C|-0--0-0--0--0-0--0--0-|-0--0-0--0--0-0-------|

Verse

F|--------------------|
C|--------------------|
G|--------------------|
C|-0--0-0--0--0-0--0--|

Chorus

F|---------------------------------|
C|---------------------------------|
G|---------------------------------|
C|-0-0-0-0-7-7-7-7-5-5-5-5-8-8-8-8-|

Chorus Fill

F|---------------------------------|
C|---------------------------------|
G|---------------------------------|
C|-0-0-0-0-7-7-7-7-5-5-5-5-3-3-3-3-|

Bridge 

F|--------------------------|
C|--------------------------|
G|--------------------------|
C|-0----0----7----5----8----|

Interlude 
                    x8            x8            x4
F|--------------------|-------------|-------------|
C|--------------------|-------------|-------------|
G|--------------------|-------------|-5--5--5--5--|
C|-0--0-0--0--0-0--0--|-0--0--0--0--|-------------|

Order:
Intro x 1
Rest
Main Riff x 2
Verse x 16
Chorus x 2
Main Riff x 2
Verse x 11
Chorus x 3
Chorus Fill x 1
Bridge x 2
Interlude x 1
Bridge x 3
Main Riff x 2

===============================================================================

-------------------------------------------------------------------------------
                             Track 5 - Los
-------------------------------------------------------------------------------

Tuning: CGCF

Main Riff
                 x3
F|-----------------|-----------------|
C|-----------------|-----------------|
G|-----------------|-----------------|
C|-0-0-1p0-3-0-0-0-|-0-0-1p0-3-5-5-5-|

Order:
Guitar Intro
Main Riff x 6
Rest
Main Riff x 9
Rest
Main Riff x 8

| p  pull-off

===============================================================================

-------------------------------------------------------------------------------
                             Track 6 - Amerika
-------------------------------------------------------------------------------

Tuning: CGCF

Main Riff
                            
F|-----------------------------------------------------------------|
C|-----------------------------------------------------------------|
G|-----------------------------------------------------------------|
C|-0-0-0-0-0-0-0-0-0-0-0-0-0-0-0-0-2-2-2-2-2-2-2-2-2-2-2-2-2-2-2-2-|

F|-----------------------------------------------------------------|
C|-----------------------------------------------------------------|
G|-----------------------------------------------------------------|
C|-0-0-0-0-0-0-0-2-3-3-3-3-3-3-3-3-2-2-2-2-2-2-2-4-5-5-5-5-5-5-5-5-|

Verse

F|-------------------------------------------------------------------|
C|-------------------------------------------------------------------|
G|-------------------------------------------------------------------|
C|-0-2-2-2-2-2--2-2-2-2-2--2-2-2-0--0-2-2-2-2-2--2-2-2-2-2---5-5-0-0-|

Bridge

F|-------------------------------------------------------------------|
C|-------------------------------------------------------------------|
G|-------------------------------------------------------------------|
C|-0-2-2-2-2-2--2-2-2-2-2--2-2-2-2---4-4-4-4-4--4-4-4-4-4---4-4-4-4--|

F|-----------------------------------------------------------------|
C|-----------------------------------------------------------------|
G|-----------------------------------------------------------------|
C|-2-2-2-2-2--2-2-5-5-5--5-5-5-5---4-4-4-4-4--4-4-4-4-4---4-4-4-4--|

Interlude

F|-------------------------------------------------------------------|
C|-------------------------------------------------------------------|
G|-------------------------------------------------------------------|
C|-0-2-2-2-2---0-2-2-2-2---0-2-2-2---0-2-2-2-2---0-2-2-2-2---5-5-0-0-|

Guitar Solo

F|-------------------------------------------------------------------|
C|-------------------------------------------------------------------|
G|-----------------0-0-0-0-0-0-0-0-----------------------------------|
C|-3-3-3-3-3-3-3-3-----------------0-2-2-2-2-2-2-2-2-2-2-2-2-2-2-2-2-|

Outro

F|-----------------------------------------------------------------|
C|-----------------------------------------------------------------|
G|-----------------------------------------------------------------|
C|-0-2-2-2-2---0-2-2-2-2---0-2-2-2---0-2-2-2-2---0-2-2-2-2---5-5---|

Order:
Vocal Intro
Main Riff x 1
Verse x 2
Bridge x 1
Rest
Main Riff x 1
Verse x 2
Bridge x 1
Rest
Main Riff x 2
Interlude x 2
Guitar Solo x 2
Rest
Main Riff x 2
Outro x 2

===============================================================================

-------------------------------------------------------------------------------
                             Track 7 - Moskau
-------------------------------------------------------------------------------

Tuning: CGCF

Main Riff/Verse
 
F|-------------------------------------------------|-----------------|
C|-------------------------------------------------|-----------------|
G|-1-1-1-1-1-1-1-1-3-3-3-3-3-3-3-3-----------------|-----------------|
C|---------------------------------4-4-4-4-4-4-4-4-|-4-4-4-4-4-4-4-4-|
                                                
F|-------------------------------------------------|-----------------|
C|-------------------------------------------------|-----------------|
G|-1-1-1-1-1-1-1-1-3-3-3-3-3-3-3-3-----------------|-4-4-4-4-3-3-3-3-|
C|---------------------------------4-4-4-4-4-4-4-4-|-----------------|

F|-------------------------------------------------|-----------------|
C|-------------------------------------------------|-----------------|
G|-1-1-1-1-1-1-1-1-3-3-3-3-3-3-3-3-----------------|-----------------|
C|---------------------------------4-4-4-4-4-4-4-4-|-4-4-4-4-4-4-4-4-|

F|-------------------------------------------------|-----------------|
C|-------------------------------------------------|-----------------|
G|-1-1-1-1-1-1-1-1---------------------------------|-----------------|
C|-----------------6-6-6-6-6-6-6-6-4-4-4-4-4-4-4-4-|-4-4-4-4-4-4-4-4-|

Short Chorus

F|-------------------------------------------------|-----------------|
C|-------------------------------------------------|-----------------|
G|-1-1-1-1-1-1-1-1-3-3-3-3-3-3-3-3-----------------|-----------------|
C|---------------------------------4-4-4-4-4-4-4-4-|-4-4-4-4-4-4-4-4-|
                                                
F|-------------------------------------------------|-----------------|
C|-------------------------------------------------|-----------------|
G|-1-1-1-1-1-1-1-1-3-3-3-3-3-3-3-3-----------------|-4-4-4-4-3-3-3-3-|
C|---------------------------------4-4-4-4-4-4-4-4-|-----------------|

Interlude

F|-------------------------------------|
C|-------------------------------------|
G|----------2--------1-----------------|
C|-2--------------------------3--------|

Outro Riff

F|-----------------------------------------------------------------|
C|-------------------------------------------------1-1-1-1-1-1-1-1-|
G|-1-1-1-1-1-1-1-1-3-3-3-3-3-3-3-3-4-4-4-4-4-4-4-4-----------------|
C|-----------------------------------------------------------------|

F|-----------------------------------------------------------------|
C|-------------------------------------------------4-4-4-4-3-3-3-3-|
G|-1-1-1-1-1-1-1-1-----------------4-4-4-4-4-4-4-4-----------------|
C|-----------------6-6-6-6-6-6-6-6---------------------------------|

F|-----------------------------------------------------------------|
C|-------------------------------------------------1-1-1-1-3-3-3-3-|
G|-1-1-1-1-1-1-1-1-3-3-3-3-3-3-3-3-4-4-4-4-4-4-4-4-----------------|
C|-----------------------------------------------------------------|

F|-----------------------------------------------------------------|
C|-----------------------------------------------------------------|
G|-1-1-1-1-1-1-1-1-------------------------------------------------|
C|-----------------6-6-6-6-6-6-6-6-4-4-4-4-4-4-4-4-4-4-4-4-4-4-4-4-|

End

F|----|
C|----|
G|-1--|
C|----|

Order:
Synth Intro
Main Riff x 1
Verse x 1
Short Chorus x 1
Verse x 1
Main Riff x 2
Interlude x 1
Rest
Outro Riff x 2
End x 1

===============================================================================

-------------------------------------------------------------------------------
                             Track 8 - Morgenstern
-------------------------------------------------------------------------------

Tuning: CGCF

Riff Fill
 
F|-----|
C|-----|
G|-----|
C|-3-0-|

Main Riff

F|--------------------------------|
C|--------------------------------|
G|--------------------------------|
C|-0-0-3-0--3-0---0-0-3-0-0-0-3-0-|

Bridge 1

F|-----------------------------------------------------------|
C|-------------------------------------------3-3-3-3-3-3-3-3-|
G|---------------------------5-5-5-5-5-5-5-5-----------------|
C|-0-0-3-0--3-0---0-0-3-0-0----------------------------------|

Chorus
                                                                x2
F|----------------------------------------------------------------|
C|----------------------------------------------------------------|
G|-5--5-5--4--4-4--0--0-0--0--0-0---------------------------------|
C|---------------------------------8--8-8--8--8-8--5--5-5--5--5-5-|

F|--------------------------------------|
C|--------------------------------------|
G|--------------------------------------|
C|-8--8-8--8--8-8--10--10-10--10--10-10-|

Bridge 2

F|----------------------------------|
C|----------------------------------|
G|----------------------------------|
C|-0-0-3-0--3-0---0-0-3-0-0-0-------|

Breakdown

F|--------------------------|
C|--------------------------|
G|--------------------------|
C|-3p0-0-0-0-0-0-0--3p0-3p0-|

Bridge 3 

F|------------------------------------|
C|------------------------------------|
G|-1-1-1-1--1-1-1-1--1-1-1-1--1-1-1-1-|
C|------------------------------------|

End

F|-----------------|
C|-----------------|
G|-----------------|
C|-0-0-3-0-0-0-3-0-|

Order:
Vocal Intro
Riff Fill x 1
Main Riff x 5
Bridge 1 x 1
Chorus x 1
Riff Fill x 1
Main Riff x 5
Bridge 2 x 1
Chorus x 2
Breakdown x 8
Rest
Bridge 3 x 1
Chorus x 2
Rest
End x 1

| p  pull-off

===============================================================================

-------------------------------------------------------------------------------
                             Track 9 - Stein Um Stein
-------------------------------------------------------------------------------

Tuning: CGCF

Verse 1
                 x2                                    x3                     
F|-----------------|-----------3-3-2-2-|-----------------|-----------3-3-2-2-|
C|-0-0-0-0---------|-0-0-0-2h3---------|-0-0-0-0---------|-0-0-0-2h3---------|
G|---------1-1-1-1-|-------------------|---------1-1-1-1-|-------------------|
C|-----------------|-------------------|-----------------|-------------------|

                 x4          
F|-----------------|-----------------|
C|-0-0-0-0---------|-----------------|
G|---------1-1-1-1-|-----------------|
C|-----------------|-3-3-3-3-5-5-5-5-|

Chorus

F|-------------------------------|
C|-------------------------------|
G|-5-3-5-5-5-3-5-3-1-1-3-1-1-3-1-|
C|-------------------------------|

Verse 2
                 x2                                    x4
F|-----------------|-----------3-3-2-2-|-----------------|-----------------|
C|-0-0-0-0---------|-0-0-0-2h3---------|-0-0-0-0---------|-----------------|
G|---------1-1-1-1-|-------------------|---------1-1-1-1-|-----------------|
C|-----------------|-------------------|-----------------|-3-3-3-3-5-5-5-5-|

Interlude

F|-----------------|-----------------|
C|-0-0-0-0---------|-0-0-0-0---------|
G|---------1-1-1-1-|---------1-1-----|  x2
C|-----------------|-------------3-3-|
                 x3
F|-----------------|-----------------|
C|-0-0-0-0---------|-----------------|
G|---------1-1-1-1-|-----------------|
C|-----------------|-3-3-3-3-5-5-5-5-|

Guitar Solo / Outro

F|-----------------------------------------------------------------|
C|-----------------------------------------------------------------|
G|-5-----5-----5---5-----5-----5---3-1-1-3-1-1-3-1-1-0-0-1-0-0-1-0-|
C|---0-0---0-0---0---0-0---0-0---0---------------------------------|

End

F|-------------------------------------------------|
C|-------------------------------------------------|
G|-5-----5-----5---5-----5-----5---3-1-1-3-1-1-3-1-|
C|---0-0---0-0---0---0-0---0-0---0-----------------|

Outro:
No Bass until 1st Verse
Verse 1 x 1
Chorus x 4
Verse 2 x 1
Rest
Chorus x 4
Interlude x 1
Guitar Solo x 4
Outro x 3
End x 1

| h hammer-on

=============================================================================== 

-------------------------------------------------------------------------------
                             Track 10 - Ohne Dich
-------------------------------------------------------------------------------

Tuning: CGCF

Chorus 1 

F|-----------------------------------------------------------------|
C|-----------------------------------------------------------------|
G|-----------------2---------------0-----------------------2-------|
C|-2-----------------------------------------------5---------------|

Main Riff
 
F|-----------------------------------------------------------------|
C|-----------------------------------------------------------------|
G|-----------------2-2-2-2-2-2-2-2-0-0-0-0-0-0-0-0---------2-2-2-2-|
C|-2-2-2-2-2-2-2-2---------------------------------5-5-5-5---------|

Alternate Riff

F|----------------------------------------------------------------|
C|----------------------------------------------------------------|
G|-----------------2-2-2-2-2-2-2-2-0-0-0-0-0-0-0-0--------2-------|
C|-2-2-2-2-2-2-2-2---------------------------------5--------------|

End

F|-------|
C|-------|
G|-------|
C|-2-----|

Order:
No Bass until 1st Chorus
Chorus 1 x 2
Main Riff x 1
Alternative Riff x 1
Main Riff x 10
End x 1

=============================================================================== 

-------------------------------------------------------------------------------
                             Track 11 - Amour
-------------------------------------------------------------------------------

Tuning: CGCF

Chorus 1 

F|-----------------------------------------------------------------|
C|-0-0-0-0-0-0-0-0-----------------0-0-0-0-0-0-0-0-----------------|
G|-----------------1-1-1-1-1-1-1-1-----------------1-1-1-1-1-1-1-1-|
C|-----------------------------------------------------------------|

F|-----------------------------------------------------------------|
C|-----------------------------------------------------------------|
G|-0-0-0-0-0-0-0-0-----------------0-0-0-0-0-0-0-0-1-1-1-1-1-1-1-1-|
C|-----------------5-5-5-5-5-5-5-5---------------------------------|

Verse 1
                                x3
F|---------------------------------|------------|
C|---------------------------------|------------|
G|-----------------3-3-3-3---------|-5----------|
C|-0-0-0-0-0-0-0-0---------5-5-5-5-|-------3----|
                                x3
F|---------------------------------|-----------------------|
C|---------------------------------|-----------------------|
G|-----------------3-3-3-3---------|-----------------------|
C|-0-0-0-0-0-0-0-0---------5-5-5-5-|-3-------5------0------|

Chorus 2

F|-----------------------------------------------------------------|
C|-0-0-0-0-0-0-0-0-------------------------------------------------|
G|-----------------1-1-1-1-1-1-1-1-0-0-0-0-0-0-0-0-----------------|
C|-------------------------------------------------5-5-5-5-5-5-5-5-|

F|-----------------------------------------------------------------|
C|-----------------------------------------------------------------|
G|---------------------------------0-0-0-0-0-0-0-0-1-1-1-1-1-1-1-1-|
C|-3-3-3-3-3-3-3-3-5-5-5-5-5-5-5-5---------------------------------|

Verse 2
                                x3
F|---------------------------------|-----------------------|
C|---------------------------------|-----------------------|
G|-----------------3-3-3-3---------|-----------------------|
C|-0-0-0-0-0-0-0-0---------5-5-5-5-|-3-------5------0------|

Outro
                   x3
F|-------------------|-------------------------|
C|-------------------|-------------------------|
G|---------------5---|---------------5-5-5-5---|
C|-0--0-0-0--0-0----0|-0--0-0-0--0-0---------0-|

Order:
No Bass until 1st Chorus
Chorus 1 x 1
Verse x 1
Chorus 1 x 1
Chorus 2 x 1
Rest
Verse 2 x 1
Chorus 2 x 4
Outro x 1 

            
            
Suggest correction
Creating personal tab
Creating personal tab
You can edit any tab online and save it as your Personal.

You can edit, replace or remove any tab part or add personal notes – all changes will be seen only by you.

Personal tabs can be accessed anytime from any device, even offline.
Learn more »
Give kudos to tab author, rate the tab!
1 2 3 4 5
comments
print report bad tab
guest
You may want to rate the tab now too:
select rating
Wanna post a correction for this tab? Suggest correction