Oops, an error
Loading. Please wait.

Reise Reise Tab

version 1
version 1
67,691 views 39 this week
6 commentsread comments
1 2 3 4 5
x 14
add to favorites
launch autoscroll
font size
0
reset
how to read this tab
guitar tuner
Autoscroll
slow
fast
+/-
esc
set tempo
stop
Help us to improve Ultimate-Guitar.com Take our survey!
×
Author
Difficulty
intermediate
REISE REISE FULL ALBUM TAB

wolkan_cirak@hotmail.com   "ausL4nder"

______________________________________________________________
______________________________________________________________

Rammstein - Reise Reise
                                                   
d|-------------------------------------------------[Intro]-|
A|---------------------------------------------------------|
F|---------------------------------------------------------|
C|-1-----|-4-----|-8-----|-6------|-1------1-----|-11------|
G|-1-----|-4-----|-8-----|-6------|-1------1-----|-11------|
C|-1-----|-4-----|-8-----|-6------|-1------1-----|-11------|
                 
d|--------------------------[Riff]-|
A|---------------------------------|
F|---------------------------------|
C|--1-0-1-x-1-1-0-1-0-1-x-0-1-0-x--|
G|--1-0-1-x-1-1-0-1-0-1-x-0-1-0-x--|
C|--1-0-1-x-1-1-0-1-0-1-x-0-1-0-x--|
            
d|----------------------------------------------|
A|------------------------------------------------------|
F|------------------------------------------------------|
C|--1--------|--4----------|--8------------|--6---------|
G|--1--------|--4----------|--8------------|--6---------|
C|--1--------|--4----------|--8------------|--6---------|
 |Reise Reise|Seemann Reise|Jeder tut's auf|seine Weise.|
 |Reise Reise|Seemann Reise|Und die Wellen.|weinen leise|

d|------------------------------------------------------------|
A|------------------------------------------------------------|
F|------------------------------------------------------------|
C|--1-------------1----------------|--11----------------------|
G|--1-------------1----------------|--11----------------------|
C|--1-------------1----------------|--11----------------------|
 |Der eine stößt den Speer zum Mann|Der andere zum Fische dann| 
 |In ihrem Blute steckt ein Speer..|Bluten leise in das Meer..|

d|-----4-6-7-6--------------------4-6-7-6-9~-11~----11~--13---9--|
A|--4-----------7~-6-7-6~-----4~---------------------------------|
F|------------------------3-6--------------------11--------------|
C|---------------------------------------------------------------|
G|----------[3 Times...  Accordion]------------------------------|
C|---------------------------------------------------------------|

______________________R_E_I_S_E__R_E_I_S_E______________________
________________________________________________________________

Rammstein - Mein Teil
                                                                                        
d|---------------------------------|-------------------------[Intro]-|
A|----------[3 times]--------------|-----------[1 time]--------------|
F|---------------------------------|---------------------------------|
C|--2-0-2---2-0-2-5--2-0-2--2-0-2--|--2-0-2---2-0-2---2-0-2---2-0-2--|
G|--2-0-2---2-0-2-5--2-0-2--2-0-2--|--2-0-2---2-0-2---2-0-2---2-0-2--|
C|--2-0-2---2-0-2-5--2-0-2--2-0-2--|--2-0-2---2-0-2---2-0-2---2-0-2--|
 

d|-------[Behind of Chorus]-|
A|--------------------------|
F|--------------------------|
C|-----2222-2-0-2---2-0-2---|
G|-----2222-2-0-2---2-0-2---|
C|-----2222-2-0-2---2-0-2---|
 |Denn......du bist.........| 
 |was.......du isst.........|
 |und.......ihr wisst.......|
 |was.......es ist..Es ist..| 

                                   
d|-----------------------------[Chorus]-|
A|--------------------------------------|
F|--------------------------------------|
C|--2-0-2---2-0-2-5-2-0-2---0---3-------|
G|--2-0-2---2-0-2-5-2-0-2---0---3-------|
C|--2-0-2---2-0-2-5-2-0-2---0---3-------|
 |mein Teil.................nein........|
 |Mein Teil.................nein........|
 |Da das ist mein Teil......nein........|
 |Mein Teil.................nein........|

                                                               
d|----------------------------------------------------------[Bridge]-|
A|-------------------------------------------------------------------|
F|-------------------------------------------------------------------|
C|-------------------------------------------------------------------|
G|-2-2-2-2-2-2-2-2-2-2-2-2-2-2-2-2-|-3-3-3-3-3-3-3-3-7-7-7-7-7-7-7-7-|
C|-2-2-2-2-2-2-2-2-2-2-2-2-2-2-2-2-|-3-3-3-3-3-3-3-3-7-7-7-7-7-7-7-7-|
 |Ist doch so gut gewürt und so....|schön flambiert........... und so|
 |guter Wein.............und zarter|Kerzenschein........Ja da lass...|


d|-------------------------------------------------------------------|
A|-------------------------------------------------------------------|
F|-------------------------------------------------------------------|
C|-------------------------------------------------------------------|
G|-2-2-2-2-2-2-2-2-2-2-2-2-2-2-2-2-|-3-3-3-3-3-3-3-3-0-0-0-0-3-3-2-2-|
C|-2-2-2-2-2-2-2-2-2-2-2-2-2-2-2-2-|-3-3-3-3-3-3-3-3-0-0-0-0-3-3-2-2-|
 |liebevoll auf Porzel.............|lan serviert.....Dazu ein........|
 |ich mir Zeit................Etwas|Kultur muss sein.................|

                                           
d|-9^---|-12^---|-9^---|-12^---|-9^---|-9^---|-9^---|-12^---|
A|----------------------------------------------------------|
F|-----------------------[After the Bridge/Keyboard effect]-|

______________________R_E_I_S_E__R_E_I_S_E______________________
________________________________________________________________

Reise Reise - Dalai Lama
                                                                    
                                                             
d|-------------------[Intro/Guitar 1]-|
A|------------------------------------|
F|-----7x-----7x------7x-7x-----------|
C|-----7x-----7x------7x-7x-----------|
G|--5--5x--5--5x--5-5-5x-5x--5-5-6-0--|
C|--0------0------0-0--------0-0-6-0--|
 |Ein Flugzeug liegt im Abendwind...An|
 |In drei Stunden sind sie da......zum|
 
d|------------------------------------|
A|------------------------------------|
F|-----7x-----7x------7x-7x-----------|
C|-----7x-----7x------7x-7x-----------|
G|--5--5x--5--5x--5-5-5x-5x--5-5-6-0--|
C|--0------0------0-0--------0-0-6-0--|
 |Bord ist auch ein Mann mit Kind.....|
 |Wiegenfeste der Mama................|

d|-------------------------------------|
A|-------------------------------------|
F|-----7x-----7x------7x-7x------------|
C|-----7x-----7x------7x-7x------------|
G|--5--5x--5--5x--5-5-5x-5x---5-5-6-0--|
C|--0------0------0-0---------0-0-6-0--|
 |Sie sitzen sicher sitzen warm.....und|
 |Die Sicht ist gut der Himmel.........|

d|------------------------------------|
A|------------------------------------|
F|-----7x-----7x------7x-7x-----------|
C|-----7x-----7x------7x-7x------6----|
G|--5--5x--5--5x--5-5-5x-5x--5-5-6----|
C|--0------0------0-0--------0-0-6----|
 |gehen so dem Schlaf ins Garn........|
 |klar................................|                                                             

d|--------------------[Intro/Guitar 2]-|
A|-------------------------------------|
F|-------------------------------------|
C|-------------------------------------|
G|-----5------5-------5--5-------------|
C|--0------0------0-0---------0-0-6-0--|

d|------------------------------------|
A|------------------------------------|
F|------------------------------------|
C|------------------------------------|
G|-----5------5-------5--5------------|
C|--0------0------0-0--------0-0-6-0--|

d|-------------------------------------|
A|-------------------------------------|
F|-------------------------------------|
C|-------------------------------------|
G|-----5------5-------5--5-------------|
C|--0------0------0-0---------0-0-6-0--|

d|------------------------------------|
A|------------------------------------|
F|------------------------------------|
C|------------------------------------|
G|-----5------5-------5--5------------|
C|--0------0------0-0--------0-0-6----|
                                             
d|-------[Verse/Guitar 1/Guitar 2]-|
A|---------------------------------|
F|---------------------------------|
C|---------------------------------|
G|--0-0x--0-0x--0-0-0x-0x-0-0-6-0--|
C|--0-0x--0-0x--0-0-0x-0x-0-0-6-0--|
 |Weiter, weiter ins Verderben.....|  
 |Der Mensch gehört nicht in die...|

d|----------------------------------|
A|----------------------------------|
F|----------------------------------|
C|----------------------------------|
G|--0-0x--0-0x--0-0-0x-0x-0-0-6-0---|
C|--0-0x--0-0x--0-0-0x-0x-0-0-6-0---|
 |..................................|
 |So der Herr im Himmel ruft........|

d|---------------------------------|
A|---------------------------------|
F|---------------------------------|
C|---------------------------------|
G|--0-0x--0-0x--0-0-0x-0x-0-0-6-0--|
C|--0-0x--0-0x--0-0-0x-0x-0-0-6-0--|
 |Wir müssen leben bis wir sterben.|
 |seine Söhne auf dem Wind.........|                           

d|--------------------------------|
A|--------------------------------|
F|--------------------------------|
C|--------------------------------|
G|--0-0x--0-0x--0-0-0x-0x-0-0-6---|
C|--0-0x--0-0x--0-0-0x-0x-0-0-6---|
 |................................|
 |Bringt mir dieses Menschenkind..|
                                                                                    
d|-------------------------------[Bridge/Guitar 1]-|
A|-------------------------------------------------|
F|-14-14-14-14-14-14-14-14-13-13-13-13-13-13-13-13-|
C|-x--x--x--x--x--x--x--x--x--x--x--x--x--x--x--x--|
G|-12-12-12-12-12-12-12-12-12-12-12-12-12-12-12-12-|
C|-------------------------------------------------|
 |Aus den Wolken tropft ein Chor...................| 


d|---------------------------------------|
A|---------------------------------------|
F|-14-14-14-14-7-7-7-7-7-7-7-7-7-7-7-7-7-|
C|---------------------------------------|
G|-12-12-12-12-5-5-5-5-5-5-5-5-5-5-5-5-5-|
C|---------------------------------------|
 |Kriecht sich in das kleine Ohr.........|

                                                     
d|---------------[Bridge/Guitar 2]-|
A|---------------------------------|
F|---------------------------------|
C|-8-8-8-8-8-8-8-8-8-8-8-8-8-8-7-7-|
G|-8-8-8-8-8-8-8-8-8-8-8-8-8-8-7-7-|
C|-8-8-8-8-8-8-8-8-8-8-8-8-8-8-7-7-|

d|---------------------------------|
A|---------------------------------|
F|---------------------------------|
C|-5-5-5-5-5-5-5-5-7-7-7-7-7-7-7-7-|
G|-5-5-5-5-5-5-5-5-7-7-7-7-7-7-7-7-|
C|-5-5-5-5-5-5-5-5-7-7-7-7-7-7-7-7-|
                                                    
d|--15----|--16------|--13----16-----|--8----|
A|-------------------------------------------|
F|--12----|--13------|--10----13-----|--5----|
C|-------------------------------------------|
G|-----------------------[Keyboard/Chorus 1]-|
C|-------------------------------------------|
 |Komm her|bleib hier|Wir sind gut zu|dir....|
 |Komm her|bleib hier|Wir sind Brüder|dir....|


d|---15-----------------------------|---16-----------------------|
A|---------------------------------------------------------------|
F|---12-----------------------------|---13-----------------------|
C|---------------------------------------------------------------|
G|-------------------------------------------[Keyboard/Chorus 2]-|
C|---------------------------------------------------------------|
 |Der Vater hält das Kind jetzt fest|Hat es sehr an sich gepresst|
 |Doch die Angst kennt kein Erbarmen|o der Vater mit den Armen...|

d|---13----16------------------|--8----|
A|-------------------------------------|
F|---10----13------------------|--5----|
C|-------------------------------------|
G|-------------------------------------|
C|-------------------------------------|
 |Bemerkt nicht dessen Atemnot.|.......|
 |Drückt die Seele aus dem Kind|.......|

d|---13----16------------------|--8-----------|
A|--------------------------------------------|
F|---10----13------------------|--5-----------|
C|--------------------------------------------|
G|--------------------------------------------|
C|--------------------------------------------|

d|---15-----------------------------|---16--------------------|
A|------------------------------------------------------------|
F|---12-----------------------------|---13--------------------|
C|------------------------------------------------------------|  
G|------------------------------------------------------------|
C|------------------------------------------------------------|
 |Doch die Angst kennt kein Erbarmen|o der Vater mit den Armen|
 |Drückt die Seele aus dem Kind|Diese setzt...|

______________________R_E_I_S_E__R_E_I_S_E______________________
________________________________________________________________

Rammstein - Keine Lust

G|-------------[Bass]-|
D|--------------------|
A|--3--6--1/3--6^-----|
E|--------------------|

                                                                
e|-------------------------[Riff 1]-|
H|----------------------------------|
G|----------------------------------|
D|--555555-5'5-5'5-|-555555-5'5-5'5-|
A|--333333-3'3-3'3-|-333333-3'3-3'3-|
E|--333333-3'3-3'3-|-333333-3'3-3'3-|

e|----------------------------------|
H|----------------------------------|
G|----------------|----------666333-|
D|-555555-5'5-5'5-|-555555----------|
A|-333333-3'3-3'3-|-333333----------|
E|-333333-3'3-3'3-|-333333----------|
       
      
e|----[Riff 2]-|
H|-------------|
G|-------------|
D|--55555555-x-|
A|--33333333-x-|
E|--33333333-x-|
 |Ich hab' kei.|
 |Ich habe kei.| 
 |Hab'keine Lu.|

                       
e|-------------------[Riff 3]-|
H|--------[4 Times]-----------|
G|----------------------------|
D|--55555555--5^-55555555--7^-|
A|--33333333-----33333333-----|
E|--33333333-----33333333-----|
 |Ich hätte Lust zu onanie....| 
 |Hab' keine Lust es zu prob..|
 |Ich hätte Lust mich auszu...| 
 |Hab' keine Lust mich nackt..|

                                                        
e|------------------------------------------------------[Chorus 1]-|
H|-----------------------------------------------------------------|
G|--------------------------------------5--5--5--5--|--8--8--8-8---|
D|-5--5--5--5--5--5-|--7--7--7--7--7-|--3--3--3--3--|--6--6--6-6---|
A|-3--3--3--3--3--3-|--5--5--5--5--5-|--3--3--3--3--|--6--6--6-6---|
E|-----------------------------------------------------------------|
 |Ich hätte Lust mit.|großen Tieren..|Hab'keine Lust|zu riskieren..|
 |Hab' keine Lust vom|Schnee zu gehen|Hab'keine Lust|zu erfrieren..|


e|------------------------------[Chorus 2]-|
H|-----------------------------------------|
G|--------------------5--|-8---------------|
D|-5---------|-7------3--|-6-------5-------|
A|-3---------|-5------3--|-6-------3-------|
E|-----------------------------------------|
 |kalt.....So|kalt.......|.....mir ist kalt|

e|----------------------------------|
H|----------------------------------|
G|--------5--|-8--------------------|
D|-7------3--|-6--------------------|
A|-5------3--|-6--------------------|
E|----------------------------------|

______________________R_E_I_S_E__R_E_I_S_E______________________
________________________________________________________________

Rammstein - Los
                                                                   
d|--------------------|----[Intro/Verse]-|
A|------[3 times]-----|-----[1 time]-----|
F|--------------------|------------------|
C|-----1p---3p-----1p-|-----1p---3/5-5-5-|
G|-----1p---3p-----1p-|-----1p---3/5-5-5-|
C|-0-0-1p-0-3p-0-0-1p-|-0-0-1p-0-3/5-5-5-|

                                                                          
d|------------[2 times]---------------|---------[2 times]---------[Solo]-|
A|----3-------------------------------|---3------------------------------|
F|----------5-------------------------|------5---------------------------|
C|-------------3---------------3----3-|---------3------------3-----------|
G|-5-----0--------5--3--5--3--3--5----|-5----------5---3--5--3--3--5--3--|
C|------------------------------------|----------------------------------|
                               
d|----------[1 times]-----------------|---------[3 times]----------------|
A|---3--------------------------------|----3-----------------------------|
F|--------5---------------------------|--------5-------------------------|
C|-----------3----------------3-----3-|-----------3--------------3-------|
G|-5-----0--------5--3--5--3--3--5----|-5------------5--3--5--3--3--5--3-|
C|------------------------------------|----------------------------------|

______________________R_E_I_S_E__R_E_I_S_E______________________
________________________________________________________________

Rammstein - Amerika

e|---5-----------------------|-5--------|-3-----------|
H|---6-----------------------|-5--------|-5-----------|
G|---7---[Intro/Keyboard]----|-7--------|-2-----------|
D|---7-----------------------|-7--------|-2-----------|
A|---5-----------------------|-5--------|-0-----------|
E|----------------------------------------------------|
 |We're all living in Amerika|Amerika...|ist wunderbar| 


e|---5---------------|-5--------|-3------------------|
H|---6---------------|-5--------|-5------------------|
G|---7---------------|-7--------|-2------------------|
D|---7---------------|-7--------|-2------------------|
A|---5---------------|-5--------|-0------------------|
E|---------------------------------------------------|
 |We're all living in|Amerika...|Amerika...Amerika...|

                                       
d|------------------------[Chorus]-|
A|---------------------------------|
F|---------------------------------|
C|-0-0-0-0-0-0-0-0-0-0-0-0-0-0-0-0-|
G|-0-0-0-0-0-0-0-0-0-0-0-0-0-0-0-0-|
C|-0-0-0-0-0-0-0-0-0-0-0-0-0-0-0-0-|
 |We're all living in Amerika......| 
 |We're all living in Amerika......| 

d|----------------------------------|
A|----------------------------------|
F|----------------------------------|
C|-2-2-2-2-2-2-2-2-2-2-2-2-2-2-2-2--|
G|-2-2-2-2-2-2-2-2-2-2-2-2-2-2-2-2--|
C|-2-2-2-2-2-2-2-2-2-2-2-2-2-2-2-2--|
 |Amerika ist wunderbar.............|
 |Coca-Cola Wonderbra...............|

d|-------------------------------------|
A|-------------------------------------|
F|-------------------------------------|
C|--0-0-0-0-0-0-0-0--|-3-3-3-3-3-3-3-3-|
G|--0-0-0-0-0-0-0-0--|-3-3-3-3-3-3-3-3-|
C|--0-0-0-0-0-0-0-0--|-3-3-3-3-3-3-3-3-|
 |We're all living in|Amerika..........|
 |We're all living in|Amerika..........|

d|------------------------------------|
A|------------------------------------|
F|------------------------------------|
C|-2-2-2-2-2-2-2-2-|-5-5-5-5-5-5-5-5--|
G|-2-2-2-2-2-2-2-2-|-5-5-5-5-5-5-5-5--|
C|-2-2-2-2-2-2-2-2-|-5-5-5-5-5-5-5-5--|
 |Amerika..........|Amerika...........|
 |Amerika..........|Amerika...........|
   
                                                                
d|-----------------------------------------------------------------------|
A|--------------------------------------------------------------[xxxxxx]-|
F|-----------------------------------------------------------------------|
C|-----------------------------------------------------------------------|
G|-0-2-2-2-2-x-2-2-2-2-2-x-2-2-2-0--|-0-2-2-2-2-x-2-2-2-2-2-x-5-5-5-0----|
C|-0-2-2-2-2-x-2-2-2-2-2-x-2-2-2-0--|-0-2-2-2-2-x-2-2-2-2-2-x-5-5-5-0----|
 |Wenn getanzt wird will ich führen.|auch wenn ihr euch alleine dreht....| 
 |Lasst euch ein wenig kontrollieren|Ich zeige euch wie es richtig geht..|

d|----------------------------------------------------------------------|
A|----------------------------------------------------------------------|
F|----------------------------------------------------------------------|
C|----------------------------------------------------------------------|
G|-0-2-2-2-2-x-2-2-2-2-2-x-2-2-2-2-|-5-5-5-5-5-x-5-5-5-5-5-x-5-5-5-5----|
C|-0-2-2-2-2-x-2-2-2-2-2-x-2-2-2-2-|-5-5-5-5-5-x-5-5-5-5-5-x-5-5-5-5----|
 |Wir bilden einen lieben Reigen...|Die Freiheit spielt auf allen Geigen|


d|-----------------------------------------------------------------|
A|-----------------------------------------------------------------|
F|-----------------------------------------------------------------|
C|-----------------------------------------------------------------|
G|-0-2-2-2-2-x-2/6-6-6-x-6-6-6-6-|-5-5-5-5-5-x-5-5-5-5-5-x-5-5-5-5-|
C|-0-2-2-2-2-x-2/6-6-6-x-6-6-6-6-|-5-5-5-5-5-x-5-5-5-5-5-x-5-5-5-5-|
 |Musik kommt aus dem Weißen Haus|und vor Paris steht Micky Maus...| 

                                                         
d|--------------------------------------------------------------|
A|-----------------------------------------------------[Bridge]-|
F|--------------------------------------------------------------|
C|--------------------------------------------------------------|
G|--------------------------------------------------------------|
C|-0-2-2-2-2~~0-2-2-2-2~~0-2-2-2-|0-2-2-2-2~~0-2-2-2-2~~5-5-0-0-|
 |This is not a love song........|This is not a love song.......| 
 |I don't sing my mother tongue..|No,this is not a love song....|


                                    
d|-----------------------------------------------------[Behind solo]-|
A|---------------------------------------------------------[2 times]-|
F|-------------------------------------------------------------------|
C|-3-3-3-3-3-3-3-3-|-7-7-7-7-7-7-7-7-|-2-2-2-2-2-2-2-2-2-2-2-2-2-2-2-|
G|-3-3-3-3-3-3-3-3-|-7-7-7-7-7-7-7-7-|-2-2-2-2-2-2-2-2-2-2-2-2-2-2-2-|
C|-3-3-3-3-3-3-3-3-|-7-7-7-7-7-7-7-7-|-2-2-2-2-2-2-2-2-2-2-2-2-2-2-2-|

                                                                      
d|------10-------10-------10-------10-------10-------10-------10-------10--|
A|-8-12-----8-12-----8-12-----8-12-----8-12-----8-12-----8-12-----8-12-----|
F|-------------------------------------------------------------------------|
C|------------------------------------------------------------------[solo]-|
G|---------------------------------------------------------------[2 times]-|
C|-------------------------------------------------------------------------|

d|------9-------9-------9-------9-------9-------9-------9-------9--|
A|-7-10----7-10----7-10----7-10----7-10----7-10----7-10----7-10----|
F|-----------------------------------------------------------------|
C|-----------------------------------------------------------------|
G|-------------------------------------------------------[2 times]-|
C|-----------------------------------------------------------------|

d|------10-------10-------10-------10-------10-------10-------10-------10--|
A|-8-12-----8-12-----8-12-----8-12-----8-12-----8-12-----8-12-----8-12-----|
F|-------------------------------------------------------------------------|
C|-------------------------------------------------------------------------|
G|---------------------------------------------------------------[2 times]-|
C|-------------------------------------------------------------------------|

d|------9-------9-------9-------9-------9-------9-------9-------9--|
A|-7-10----7-10----7-10----7-10----7-10----7-10----7-10----7-10----|
F|-----------------------------------------------------------------|
C|-----------------------------------------------------------------|
G|---------------------------------------------------------[Later]-|
C|-----------------------------------------------------------------|

d|-----9------9------9------9------9------9------9------9--|
A|-7-9----7-9----7-9----7-9----7-9----7-9----7-9----7-9----|
F|---------------------------------------------------------|
C|---------------------------------------------------------|
G|---------------------------------------------------------|
C|---------------------------------------------------[End]-|

______________________R_E_I_S_E__R_E_I_S_E______________________
________________________________________________________________

Rammstein - Moskau

       e|------------------------------------------------------|
       H|------------------------------------------------------|
       G|------------------------------------------------------|
       D|------------------------------------------------------|
       A|-6--8---2--|-6--8---2--9--8--|-6--8---2--|-6---4---2--|
       D|-6--8---2--|-6--8---2--9--8--|-6--8---2--|-6---4---2--|

e|-----------------------------------------|
H|--------------------------------[Chorus]-|
G|-----------------------------------------|
D|-----------------------------------------|
A|--6---'-8-----------'-2------------------|
D|--6---'-8-----------'-2------------------|

e|---------------------------------------------|
H|---------------------------------------------|
G|---------------------------------------------|
D|---------------------------------------------|
A|--6---8--'-2--------------'-9--8-------------|
D|--6---8--'-2--------------'-9--8-------------|

e|-----------------------------------------|
H|-----------------------------------------|
G|-----------------------------------------|
D|-----------------------------------------|
A|--6---'-8-----------'-2------------------|
D|--6---'-8-----------'-2------------------|
 
e|------------------------------------------------|
H|------------------------------------------------|
G|------------------------------------------------|
D|------------------------------------------------|
A|--6--------'4----------------'-2----------------|
D|--6--------'4----------------'-2----------------|
                                                               
e|--7------7---6~--4----------4~---4--6---|--7------7---6~--4----------|
H|-----4~--------------7------------------|-----4~--------------7------|
G|-------------------------4--------------|-------------------------4--|
D|---------------------------------------------------------------------|
A|---------------------------------------------------------[Accordeon]-|
E|---------------------------------------------------------------------|

                                                         
                            e|----------------------------------|
                            H|----------------------------------|
                            G|----------------------------------|
                            D|--1------7------|--6------1-------|
                            A|--1------7------|--6------1-------|
                            D|--1------7------|--6------1-------|

______________________R_E_I_S_E__R_E_I_S_E______________________
________________________________________________________________

Rammstein - Morgenstern

                              [Intro/Keyboard]
d|--13--12---|--10--9----|--10-------|-------|
A|--10-------|-----------|--11-------|--11---|
F|--10-------|--14--9----|--10--8----|--12---|
C|--12-------|--14-------|--8---7----|--12---|
G|--12-------|--12-------|--8--------|--10---|
C|--12-------|--14-------|--8--------|--12---|
 |Aaaaaaaaaaaa...............................|

d|--13--12---|--10--9---|--12----|---------|
A|--10-------|----------|--11----|---------|
F|--10-------|--14--9---|--10----|--12-----|
C|--12-------|--14------|--8-----|--12-----|
G|--12-------|--12------|--8-----|--10-----|
C|--12-------|--14------|--8-----|--12-----|
 |Aaaaaaaaaaaaaaaa.........................|

                                       
d|----------------------------------[Intro/Verse]-|
A|------------------------------------------------|
F|------------------[7 times]---------------------|
C|------------------------------------------------|
G|--3-0-x--3-0-3-0-x----|--3-0-x--3-0-3-0-0-0-----|
C|--3-0-x--3-0-3-0-x----|--3-0-x--3-0-3-0-0-0-----|
 |Sie ist hässlich......|wenn sie in den Himmel...|
 |Dann fürchtet sich....|ihr von unten ins Gesicht| 

 
                             
d|-----------------------[Bridge/Guitar 1]-|
A|-----------------------------------------|
F|--6-----------------|--10----------------|
C|--x-----------------|--x-----------------|
G|--4-----------------|--8-----------------|
C|-----------------------------------------|
 |Mal mir Schönheit auf die Wangen.........|

                            
d|----------[Chorus/Guitar 1]-|
A|----------------------------|
F|----------------------------|
C|--12--------11---|--7-------|
G|--12--------11---|--7-------|
C|--12--------11---|--7-------|
 |Morgenstern ach..|scheine...|

d|---------------------------------------------------------|
A|---------------------------------------------------------|
F|---------------------------------------------------------|
C|--8------------|--5---------|--12------11------|--7------|
G|--8------------|--5---------|--12------11------|--7------|
C|--8------------|--5---------|--12------11------|--7------|
 |auf das Antlitz|mein........|Wirf ein warmes...|Licht....|

d|---------------------------------------------------------------|
A|---------------------------------------------------------------|
F|---------------------------------------------------------------|
C|--8--------------|--5------------|--8------------|--10---------|
G|--8--------------|--5------------|--8------------|--10---------|
C|--8--------------|--5------------|--8------------|--10---------|
 |auf mein.......Un|gesicht........|Sag mir ich bin|nicht alleine|

                           
d|-----------------------[Bridge/Guitar 2]-|
A|-----------------------------------------|
F|-----------------------------------------|
C|-----------------------------------------|
G|--4444444444444444--|--------------------|
C|--------------------|--3333333333333333--|
 |Mal mir Schönheit auf die Wangen.........|

                       
d|----------------[Chorus/Guitar 2]-|
A|----------------------------------|
F|----------------------------------|
C|--12------11------|--7------------|
G|--12------11------|--7------------|
C|--12------11------|--7------------|

d|-------------------------------------|
A|-------------------------------------|
F|-------------------------------------|
C|-8------|-5-----|-12----11----|-7----|
G|-8------|-5-----|-12----11----|-7----|
C|-8------|-5-----|-12----11----|-7----|

d|--------------------------------------------|
A|--------------------------------------------|
F|--------------------------------------------|
C|-8----------|-5-----------|-8------|-10-----|
G|-8----------|-5-----------|-8------|-10-----|
C|-8----------|-5-----------|-8------|-10-----|

                                   
d|------------------------------------[Later Chorus]-|
A|---------------------------------------------------|
F|---------------------------------------------------|
C|---------------------------------------------------|
G|---3-0-x--3-0-3-0-x------|--3-0-x--3-0-3-0-0-0-----|
C|---3-0-x--3-0-3-0-x------|--3-0-x--3-0-3-0-0-0-----|
 |Hässlich,du bist hässlich|.........................|
 |Du.......du bist hässlich|.........................|


                                   
d|-------------------------|----[Bridge]-|                
A|---------------[8 times]-|---[NEIN!]---|
F|-------------------------|-------------|
C|--3p0----------3p030-----|-------------|        
G|--3p0-00000000-3p030-00--|--00000000---|          
C|--3p0-00000000-3p030-00--|--00000000---|
 |du................du bist|           
 |hässlich.................|          
 |Du bist einfach..........|          
 |hässlich.................|          
 |Der Mensch ist doch ein..|          
 |Schöne Dinge wünsch' ich.|          
 |doch du, du bist.........|          
 |nicht schön..............|nein......|


                                                 [End of song/Keyboard]
d|--13---12--|--10---9---|--10-------|-------|--13---12---|--10---9---|
A|--10-------|-----------|--11---8---|--11---|--10--------|-----------|
F|--10-------|--14---9---|--10---7---|--12---|--10--------|--14---9---|
C|--12-------|--14-------|--8--------|--12---|--12--------|--14-------|
G|--12-------|--12-------|--8--------|--10---|--12--------|--12-------|
C|--12-------|--14-------|--8--------|--12---|--12--------|--14-------|

d|--10-------|-------|--12---13---|--15---|--13---12|--10---9---|
A|--11---8---|--11---|--11--------|--13---|---------|-----------|
F|--10---7---|--12---|--10--------|--12---|--10---9-|--7----6---|
C|--8--------|--12---|--8---------|--10---|--12---11|--14-------|
G|--8--------|--10---|--8---------|--10---|--12---11|--12-------|
C|--8--------|--12---|--8---------|--10---|--12---11|--14-------|

d|--10---|-------12---|--13---12---|--10---9---|--10---|-------9---|
A|-------|------------|------------|-----------|-------|-----------|
F|--7----|-------9----|--10---9----|--7----6---|--7----|-------6---|
C|--8----|--12--------|--12---11---|--14-------|--8----|--12-------|
G|--8----|--10--------|--12---11---|--12-------|--8----|--10-------|
C|--8----|--12--------|--12---11---|--14-------|--8----|--12-------|

d|--12---13---|--15---|--13---12---|--10---9---|--10---|-------12---|
A|------------|-------|------------|-----------|-------|------------|
F|--9----10---|--12---|--10---9----|--7----6---|--7----|-------9----|
C|--8---------|--10---|--12---11---|--14-------|--8----|--12--------|
G|--8---------|--10---|--12---11---|--12-------|--8----|--10--------|
C|--8---------|--10---|--12---11---|--14-------|--8----|--12--------|

d|--13---12---|--10---9---|--10---|-------9---|--12---13---|--15---|
A|------------|-----------|-------|-----------|------------|-------|
F|--10---9----|--7----6---|--7----|-------6---|--9----10---|--12---|
C|--12---11---|--14-------|--8----|--12-------|--8---------|--10---|
G|--12---11---|--12-------|--8----|--10-------|--8---------|--10---|
C|--12---11---|--14-------|--8----|--12-------|--8---------|--10---|

______________________R_E_I_S_E__R_E_I_S_E______________________
________________________________________________________________

Rammstein - Stein Um Stein
                                       
d|--------------------------------------[Intro]-|
A|----------------------------------------------|
F|-2~-3-5-3---|-2~---------|--------|-----------|
C|----------3-|----3-5-3-2-|-0---3--|-0---3--5--|
G|----------------------------------------------|
C|----------------------------------------------|

d|-------------------------------------------------------------------|
A|-------------------------------------------------------------------|
F|--2~--3--5--3------|--2~-------------|------------|----------------|
C|---------------3---|-----3--5--3--2--|--0----3----|--0----3----5---|
G|-------------------------------------------------------------------|
C|-------------------------------------------------------------------|
 |Ich habe Pläne.....|Ich baue dir ein.|Jeder Stein.|Und du ziehst...|


d|-----------------------------------------------------------------|
A|-----------------------------------------------------------------|
F|--2~--3--5--3-----|--2~--------------|-----------|---------------|
C|---------------3--|------3--5--3--2--|--0----3---|--0----3---5---|
G|-----------------------------------------------------------------|
C|-----------------------------------------------------------------|
 |Ja ich baue ein...|Hat keine Fenster.|Innen wird.|Dringt überha..|

d|---------------------------------------|
A|---------------------------------------|
F|--2~-3-5-3---|-2~---------|------------|
C|-----------3-|----3-5-3-2-|--0----3----|
G|---------------------------------------|
C|---------------------------------------|
 |Hinein.......|............|Ja ich sch..|

d|-------------|--------------|
A|-------------|--------------|
F|-------5-----|--------7-----|
C|----5-----5--|-----7-----7--|
G|-3-----------|--5-----------|
C|-------------|--------------|
 |Und du sollst|Ganzen sein...|
                                  
d|------------------------------[Riff 1/Verse]-|
A|---------------------------------------------|
F|---------------------------------------------|
C|-12-0-12-12-0-12-12-0--|-10-8-0-10-8-0-10-8--|
G|-12-0-12-12-0-12-12-0--|-10-8-0-10-8-0-10-8--|
C|-12-0-12-12-0-12-12-0--|-10-8-0-10-8-0-10-8--|
 |Stein um...............|Stein................| 
 |mauer ich dich.........|ein..................|
 |Stein um...............|Stein................| 
 |Ich werde immer........|bei dir..............|sein| 


                         
d|-----------------------------[Behind Chorus]-|
A|---------------------------------------------|
F|---------------------------------------------|
C|-12-0-12-12-0-12-12-0--|-10-8-0-10-8-0-10-8--|
G|-12-0-12-12-0-12-12-0--|-10-8-0-10-8-0-10-8--|
C|-12-0-12-12-0-12-12-0--|-10-8-0-10-8-0-10-8--|
 |Stein um...............|Stein................| 
 |mauer ich dich.........|ein..................|
 |Stein um...............|Stein................| 
 |Ich werde immer........|bei dir..............|

                                               
d|-----------------------------------------------[Chorus]-|
A|--------------------------------------------------------|
F|--------------------------------------------------------|
C|--12---/8---12---/8--/15---|--12---/8---12---/8--/15----|
G|--12---/8---12---/8--/15---|--12---/8---12---/8--/15----|
C|--12---/8---12---/8--/15---|--12---/8---12---/8--/15----|
 |Sein.......................|Ich werde immer bei dir sein|

d|-----------------------------------------------------|
A|-----------------------------------------------------|
F|-----------------------------------------------------|
C|--12----/8----12----/8----|--12----/8----12----/8----|
G|--12----/8----12----/8----|--12----/8----12----/8----|
C|--12----/8----12----/8----|--12----/8----12----/8----|
 |Welch ein Klopfen welch...|Draußen fängt es an zu....|

d|----------------------------------------|
A|----------------------------------------|
F|----------------------------------------|
C|--12---/8---12---/8---|--3------5-------|
G|--12---/8---12---/8---|--3------5-------|
C|--12---/8---12---/8---|--3------5-------|
 |Alle Nägel stehen.....|Wenn ich sie in..|..Ramm|


                                 
d|----------------------------[Riff 2/Verse]-|
A|-----------------[4 times]-----------------|
F|-------------------------------------------|
C|-12-0-0-12-0-0-12-0--|-10-8-8-10-8-8-10-8--|
G|-12-0-0-12-0-0-12-0--|-10-8-8-10-8-8-10-8--|
C|-12-0-0-12-0-0-12-0--|-10-8-8-10-8-8-10-8--|
 |Stein!!!!!!................................| 


                                                                         
d|-----------------------------[End of song]-|
A|-------------------------------------------|
F|-------------------------------------------|
C|-12-0-0-12-0-0-12-0--|-12-0-0-12-0-0-12-0--|
G|-12-0-0-12-0-0-12-0--|-12-0-0-12-0-0-12-0--|
C|-12-0-0-12-0-0-12-0--|-12-0-0-12-0-0-12-0--|
 |Stein um.............|Stein................|
 |Stein um.............|Stein................|
 |Stein um.............|Stein................|
 |Stein um.............|Stein................|

d|-----------------------------------------|
A|-----------------------------------------|
F|-----------------------------------------|
C|-10-8-8-10-8-8-10-8-|-10-8-8-10-8-8-10-8-|
G|-10-8-8-10-8-8-10-8-|-10-8-8-10-8-8-10-8-|
C|-10-8-8-10-8-8-10-8-|-10-8-8-10-8-8-10-8-|
 |mauer ich dich......|ein.................|
 |mauer ich dich......|ein.................|
 |mauer ich dich......|ein.................|
 |Und keiner hört dich|....................|schreien....|

______________________R_E_I_S_E__R_E_I_S_E______________________
________________________________________________________________

Rammstein - Ohne Dich 
              
e|---------------------------------------|
H|--8---------------------|--7-----------|
G|------------------------|--------------|
D|-----[Keyboard/Intro]------------------|
A|--7---------------------|--5-----------|
E|------------------------|--------------|

e|------------------------|----------------|
H|------------------------|------------10--|
G|--9---------------------|--7----11-------|
D|------------------------|----------------|
A|------------------------|----------------|
E|--7---------------------|--5----9----9---|

e|---------------------------------------|
H|--8---------------------|--7-----------|
G|------------------------|--------------|
D|---------------------------------------|
A|--7---------------------|--5-----------|
E|------------------------|--------------|
 |........Ich werde in die|Tannen gehen..|
  
e|-----------------------------------------|
H|------------------------|------------10--|
G|--9---------------------|--7----11-------|
D|-----------------------------------------|
A|-----------------------------------------|
E|--7---------------------|--5----9----9---|
 |Dahin wo ich sie zu.....|letzt gesehen...|


e|-12----15-12~-----------|-14----15~----|
H|-8----------------------|-7------------|
G|------------------------|--------------|
D|---------------------------------------|
A|-7----------------------|-5------------|
E|------------------------|--------------|
 |Doch der Abend wirft ein|Tuch aufs Land|

e|-17---------------------|-15----14---17---|
H|------------------------|------------10---|
G|-9----------------------|-7-----11--------|
D|------------------------------------------|
A|------------------------------------------|
E|-7----------------------|-5-----9----9----|
 |und auf die Wege hinterm|Waldesrand.......|


e|-12-----15-12~----------|-14----15-14---15~---|
H|-8----------------------|-7-------------------|
G|------------------------|---------------------|
D|----------------------------------------------|
A|-7----------------------|-5-------------------|
E|------------------------|---------------------|
 |Und der Wald er steht so|schwarz und leer.....|

e|-17-----------|-15----14----------------------|
H|----------------------------------------------|
G|-9------------|-7-----11----------------------|
D|----------------------------------------------|
A|----------------------------------------------|
E|-7------------|-5-----9-----------------------|
 |Weh mir oh weh|Und die Vögel singen nicht mehr|

                                 
e|-12---------------------------|-10------|
H|----------------------------------------|
G|-9----------------------------|-7-------|
D|----------------------------------------|
A|-[Behind Acoustic Guitar at the Bridge]-|
E|----------------------------------------|
 |Ohne dich kann ich nicht sein.|Ohne dich| 
 |Ohne dich zähl ich die Stunden|ohne dich|

e|-12------------------------|-15---14----|
H|----------------------------------------|
G|-9-------------------------|-12---11----|
D|----------------------------------------|
A|----------------------------------------|
E|----------------------------------------|
 |Mit dir bin ich auch allein|Ohne dich...|
 |Mit dir stehen die Sekunden|Lohnen nicht|

                                                                                    
e|---------------------------------------------|
H|------------------------------------[Bridge]-|
G|--7------------------------------------------|
D|--7----------------------------|--7----------|
A|--5----------------------------|--7----------|
D|-------------------------------|--7----------|
 |Ohne dich kann ich nicht sein..|ohne dich....|
 |Ohne dich zähl' ich die Stunden|ohne dich....|

e|---------------------------------------------|
H|---------------------------------------------|
G|---------------------------------------------|
D|--5-------------------------|--3------7------|
A|--5-------------------------|--3------7------|
D|--5-------------------------|--3------7------|
 |Mit dir bin ich auch allein.|ohne dich.......| 
 |Mit dir stehlen diese Kunden|oder nicht......|


e|------------------------------------------------|
H|-------------------------------[Arpeggio/Verse]-|
G|------------------------------------------------|
D|-------0----------0----|-------9-----------7----|
A|----0----0-----0-----0-|----7-----7-----7-----7-|
D|-0----------0----------|-7-----------7----------|
 |Auf den Ästen in den...|Gräben..................|  

e|--------------------------------------------|
H|--------------------------------------------|
G|--------------------------------------------|
D|-------5-----------5-----|-----3-------7----|
A|----5-----5-----5-----5--|---3---3---7---7--|
D|-5-----------5-----------|-3-------7--------|
 |Ist es nun still und ohne|Leben.............|

e|-------------------------------------------------|
H|-------------------------------------------------|
G|-------------------------------------------------|
D|-------0-----------0----|-------9-----------7----|
A|----0-----0-----0-----0-|----7-----7-----7-----7-|
D|-0-----------0----------|-7-----------7----------|
 |Und das Atmen fällt mir.|ach so schwer...........|

e|-----------------------------------------|
H|-----------------------------------------|
G|-----------------------------------------|
D|-------5-----------5----|----------------|
A|----5-----5-----5-----5-|----------------|
D|-5-----------5----------|-3/7~~~~--------|
 |Weh mir oh weh..........|Und die Vögel...|
                                                                                          
e|-----------------------------------------|
H|--------------------------------[Chorus]-|
G|-----------------------------------------|
D|--0----------------------------|-7-------|
A|--0----------------------------|-7-------|
D|--0----------------------------|-7-------|
 |Ohne dich kann ich nicht sein..|ohne dich| 
 |Ohne dich zähl' ich die Stunden|ohne dich|

e|---------------------------------------------------|
H|---------------------------------------------------|
G|---------------------------------------------------|
D|-5--------------------------|-3--------/7----------|
A|-5--------------------------|-3--------/7----------|
D|-5--------------------------|-3--------/7----------|
 |Mit dir bin ich auch allein.|ohne dich./(ohne dich)|
 |Mit dir stehlen diese Kunden|oder nicht/ohne dich..|

                                                          
e|-------------------------------------------------------------------|
H|--------------------------------------------------[Arpeggio/Verse]-|
G|-------------------------------------------------------------------|
D|------0-------0-------9-------7-------5-------5-------3-------7----|
A|----0---0---0---0---7---7---7---7---5---5---5---5---3---3---7---7--|
D|--0-------0-------7-------7-------5-------5-------3-------7--------|

e|-------------------------------------------------|
H|-------------------------------------------------|
G|-------------------------------------------------|
D|-------0-----------0----|-------9-----------7----|
A|----0-----0-----0-----0-|----7-----7-----7-----7-|
D|-0-----------0----------|-7-----------7----------|
 |Und das Atmen fällt mir.|ach so schwer...........|

e|-----------------------------------------|
H|-----------------------------------------|
G|-----------------------------------------|
D|-------5-----------5----|----------------|
A|----5-----5-----5-----5-|----------------|
D|-5-----------5----------|-3/7~~~~--------|
 |Weh mir oh weh..........|Und die Vögel...|

e|------------|
H|------[End]-|
G|------------|
D|-0----------|
A|-0----------|
D|-0----------|

______________________R_E_I_S_E__R_E_I_S_E______________________
________________________________________________________________

Rammstein - Amour
                   
e|----------------------------------------------8~---|
H|------------6~-------------------6~--8~---8-9-8~---|
G|--5~---7-8------8-7-8---5~--7-8--------------------|
D|--------------6--------------------6---------------|
A|-----3------------------3--------------------------|
E|-------------------------------------------[Intro]-|

                                                            
e|-----------------------------------------------------------------|
H|--------------------------------------------------------[Riff 1]-|
G|-----------------------------------------------------------------|
D|--------------------------6-5---|--------------------------6-5---|
A|--3--6--3-6-3--1~--1/3--3-------|--3--6--3-6-3--1~--1/3--3-------|
E|-----------------------------------------------------------------|
 |Die Liebe ist ein wildes Tier Sie atmet dich sie sucht nach dir..|

e|---------------------------------------------------------------|
H|---------------------------------------------------------------|
G|---------------------------------------------------------------|
D|---------------------------6-5------|--------------------3~----|
A|---3--6--3-6-3--1~--1/3--3----------|----3--6--3-6-3--1~-------|
E|---------------------------------------------------------------|
 |Nistet auf gebrochenen Herzen Geht auf Jagd bei Kuss und Kerzen|


e|------------------------------------------------------------------|
H|---------------------------------------------------------[Riff 2]-|
G|------------------------------------------------------------------|
D|--------------------------6-5---|--------------------------6-5----|
A|--3--6--3-6-3--1~--1/3--3-------|--3--6--3-6-3--1~--1/3--3--------|
E|------------------------------------------------------------------|
 |Saugt sich fest an deinen Lippen Gräbt sich Gänge durch die Rippen|

e|------------------------------------|---------------------------------|
H|------------------------------------|---------------------------------|
G|------------------------------------|---------------------------------|
D|----------------------------6-5-----|------5----5-------6----6-----5~-|
A|----3--6--3-6-3--1~--1/3--3---------|---6-----6---6--8-----8----8--6~-|
E|----------------------------------------------------------------------|
 |Lässt sich fallen weich wie Schnee Erst wird es heiß dann kalt am Ende|


          [Till saying "Amour Amour" and keyboard playing that notes]
D|-------------------------------------------------------------10~--|
A|-3~--5-6--8~--6--5-6---3~--5-6---8~---10~--10-11-10--8~--10~------|
E|------------------------------------------------------------------|

                                                       
e|-------------------------------------------------[Chorus]-|
H|----------------------------------------------------------|
G|---9--------------------------|---9-----------------------|
D|---9------------6-------------|---9----------6------------|
A|---7------------6-------------|---7----------6------------|
E|----------------4-------------|--------------4------------|
 |Amour Amour...................|Alle wollen nur dich zähmen|
 |Die Liebe ist ein wildes Tier |In die Falle gehst du ihr..| 

e|-------------------------------------------------------------------|
H|-------------------------------------------------------------------|
G|---9-----------10------------|---9---------------10----------------|
D|---9-----------10------------|---9---------------10----------------|
A|---7-----------8-------------|---7---------------8-----------------|
E|-------------------------------------------------------------------|
 |Amour Amour am Ende..........|gefangen zwischen deinen Zähnen......|
 |In die Augen starrt sie dir..|Verzaubert wenn ihr Blick dich trifft|

                                                                
e|-----------------------------------------------------------[Solo]-|
H|-12/13----------------------------12/13---------------------------|
G|-------12-----------12/13~---12---------12------------------------|
D|-----------13--10~--------------------------13--10~---12/13~--12--|
A|------------------------------------------------------------------|
E|------------------------------------------------------------------|
                                        
e|-------------------------------------10-11--10/16--17--16/21-21--|
H|--12/13---------------13/15----13--------------------------------|
G|--------12-------------------------------------------------------|
D|-----------13--10~-----------------------------------------------|
A|-----------------------------------------------------------------|
E|-----------------------------------------------------------------|

                                      
e|--------------------------------------[Chorus/After Solo]-|
H|----------------------------------------------------------|
G|---9--------------------------|---9-----------------------|
D|---9------------6-------------|---9----------6------------|
A|---7------------6-------------|---7----------6------------|
E|----------------4-------------|--------------4------------|
 |Die Liebe ist ein wildes Tier |In die Falle gehst du ihr..|

e|-------------------------------------------------------------------|
H|-------------------------------------------------------------------|
G|---9-----------10------------|---9---------------10----------------|
D|---9-----------10------------|---9---------------10----------------|
A|---7-----------8-------------|---7---------------8-----------------|
E|-------------------------------------------------------------------| 
 |In die Augen starrt sie dir..|Verzaubert wenn ihr Blick dich trifft|

           
e|------------[End of song]-|
H|--------------------------|
G|----------------[4 times]-|
D|--------------------------|
A|--3-----3-----3-----3--3--|
E|--1--11-1--11-1--11-1--1--|
 |Bitte bitte gib mir Gift..| 

|___________R_A_M_M_S_T_E_I_N___I_S_T___U_B_E_R___A_L_L_E___________|
_____________________________________________________________________



************************************

| x  Dead note
| ~  Vibrato
| /  Slide up
| p  Pull-off 

************************************
Suggest correction
comments
print report bad tab
6 comments total. Showing first comments.
0 reply
Daouhl 31 Dec 23, 2006 06:00 AM

some songs are totallt ****ed up tabbed

0 reply
oscart 10 Jun 26, 2007 01:38 PM

aren't the solo in america tapped?

0 reply
auslander1980 133 Feb 02, 2008 06:17 AM

i dont translate from midi so some notes maybe wrong

guest
You may want to rate the tab now too:
select rating
Wanna post a correction for this tab? Suggest correction