Oops, an error
Loading. Please wait.

Reise Reise Tab

version 4
version 4
10,973 views 3 this week
no commentswrite comment
1 2 3 4 5
2 more votes to show rating
add to favorites
launch autoscroll
font size
0
reset
how to read this tab
guitar tuner
×
Best way to learn
"Reise Reise"
Autoscroll
slow
fast
+/-
esc
set tempo
stop
Author
-------------------------------------------------------------------------------
                             REISE REISE - Rammstein
-------------------------------------------------------------------------------
Tabbed by: Dylan
Email: dyland1drift@hotmail.com


Other 5 star rated versions are terribly incorrect.

Rammstein-Reise, Reise (Arise, Arise)

Drob B

B F♯ B E G♯ C♯

--------------------------|
--------------------------|
--------------------------|
--------------------------|
-2--5--9--7--2--------0---|
-2--5--9--7--2--------0---| 2X

----------------------------|
----------------------------|
----------------------------|
----------------------------|
-2-1-2--2-1-1--2-1-2--1-2-0-|
-2-1-2--2-1-1--2-1-2--1-2-0-| 4X

(accordion plays verses)

--------------------------|
--------------------------|
--------------------------|
--------------------------|
-2------------5-----------|
-2------------5-----------|


---------------------------|
---------------------------|
---------------------------|
---------------------------|
-9---------------7---------|
-9---------------7---------|


---------------------------|
---------------------------|
---------------------------|
---------------------------|
-2-------------------------|
-2-------------------------|


---------------------------|
---------------------------|
---------------------------|
---------------------------|
-12------------------------|
-12------------------------|


---------------------------|
---------------------------|
---------------------------|
---------------------------|
-2-------------5-----------|
-2-------------5-----------|


---------------------------|
---------------------------|
---------------------------|
---------------------------|
-9----------------7--------|
-9----------------7--------|


---------------------------|
---------------------------|
---------------------------|
---------------------------|
-2-------------------------|
-2-------------------------|


---------------------------|
---------------------------|
---------------------------|
---------------------------|
-12-------------------------|
-12-------------------------|


----------------------------|
----------------------------|
----------------------------|
----------------------------|
-2-1-2--2-1-1--2-1-2--1-2-0-|
-2-1-2--2-1-1--2-1-2--1-2-0-| 2X

(accordion plays verses)

--------------------------|
--------------------------|
--------------------------|
--------------------------|
-2------------5-----------|
-2------------5-----------|


---------------------------|
---------------------------|
---------------------------|
---------------------------|
-9---------------7---------|
-9---------------7---------|


---------------------------|
---------------------------|
---------------------------|
---------------------------|
-2-------------------------|
-2-------------------------|


---------------------------|
---------------------------|
---------------------------|
---------------------------|
-12------------------------|
-12------------------------|


---------------------------|
---------------------------|
---------------------------|
---------------------------|
-2-------------5-----------|
-2-------------5-----------|


---------------------------|
---------------------------|
---------------------------|
---------------------------|
-9----------------7--------|
-9----------------7--------|


---------------------------|
---------------------------|
---------------------------|
---------------------------|
-2-------------------------|
-2-------------------------|


---------------------------|
---------------------------|
---------------------------|
---------------------------|
-12------------------------|
-12------------------------|


---------------------------|
---------------------------|
---------------------------|
---------------------------|
-2-------------5-----------|
-2-------------5-----------|


---------------------------|
---------------------------|
---------------------------|
---------------------------|
-9----------------7--------|
-9----------------7--------|


---------------------------|
---------------------------|
---------------------------|
---------------------------|
-2-------------------------|
-2-------------------------|


----------------------------|
----------------------------|
----------------------------|
----------------------------|
-12-------------------------| (12th fret, not 1-2)
-12-------------------------|


---------------------------|
---------------------------|
---------------------------|
---------------------------|
-2-------------5-----------|
-2-------------5-----------|


---------------------------|
---------------------------|
---------------------------|
---------------------------|
-9----------------7--------|
-9----------------7--------|


---------------------------|
---------------------------|
---------------------------|
---------------------------|
-2-------------------------|
-2-------------------------|
 

---------------------------|
---------------------------|
---------------------------|
---------------------------|
-12------------------------|
-12------------------------|


--------------------------|
--------------------------|
--------------------------|
--------------------------|
-2------------5-----------|
-2------------5-----------|

---------------------------|
---------------------------|
---------------------------|
---------------------------|
-9---------------7---------|
-9---------------7---------|

-----------------------------|
-----------------------------|
-----------------------------|
-----------------------------|
-12--------------------------|
-12--------------------------|
Suggest correction
Give kudos to tab author, rate the tab!
1 2 3 4 5
comments
print report bad tab
guest
You may want to rate the tab now too:
select rating
Wanna post a correction for this tab? Suggest correction