Oops, an error
Loading. Please wait.

Reise Reise Tab

version 5
version 5
169 views 18 this week
no commentswrite comment
1 2 3 4 5
3 more votes to show rating
add to favorites
launch autoscroll
font size
0
reset
how to read this tab
guitar tuner
×
Best way to learn
"Reise Reise"
Autoscroll
slow
fast
+/-
esc
set tempo
stop
Author
Difficulty
Tuning
  follow
novice
C G C F A D
Song: Reise Reise
Artist: Rammstein
Tuning: Drop C


[Intro, Main Riff, and Chorus:]

d|---------------------------------------|
A|---------------------------------------|
F|---------------------------------------|
C|-1----4----8----6----1----1----11----11|
G|-1----4----8----6----1----1----11----11|
C|-1----4----8----6----1----1----11----11|


[Pre-Verse:]

d|---------------------------------------|
A|---------------------------------------|
F|---------------------------------------| x2
C|-1--0--1----1--0--1--1--0--1----0--1--0|
G|-1--0--1----1--0--1--1--0--1----0--1--0|
C|-1--0--1----1--0--1--1--0--1----0--1--0|


[Accordian Solo] (I think it's fun to play on guitar :) )

d|--4-6-7-6---------------4-6-7-6-9-11--11-13-9------------------|
A|4----------7-6-7-6----4----------------------------------------|
F|-------------------3-6--------------11-------------------------| x3
C|---------------------------------------------------------------|
G|---------------------------------------------------------------|
C|---------------------------------------------------------------|
Suggest correction
Give kudos to tab author, rate the tab!
1 2 3 4 5
comments
print report bad tab
guest
You may want to rate the tab now too:
select rating
Wanna post a correction for this tab? Suggest correction