Oops, an error
Loading. Please wait.
We have an official Seemann tab made by UG professional guitarists. Check out the tab »
×
1,273 views 15 this week
no commentswrite comment
1 2 3 4 5
x 4
add to favorites
×
Save as Personal and add changes to this tab that will be seen only by you. Learn more ›
×
You can save this tab as Personal to edit and correct it or add notes. All changes will be seen only by you. Learn more »
launch autoscroll
font size
0
reset
how to read this tab
guitar tuner
edit
Autoscroll
slow
fast
+/-
esc
set tempo
stop
-------------------------------------------------------------------------------
                             SEEMANN - Rammstein
-------------------------------------------------------------------------------
Tabbed by: Jesse
E-mail:

This is the bass guitar "translated" to an acoustic guitar. I tried to get it to work with a standard
tuning, but the last bar (C#) made me end up with a tuned down guitar. You can put a Capo on 9th and
keep the standard tuning, but naturally it will not be as dark.

Tempo: around 70
Tuning: C# (everything 3 half-steps down)
alt. Tuning: Standard with Capo on 9th


C#|--------0-------------------------------------------|
G#|--------------------3-----------1-----------0-------|
E |-----0-----0-----0-----0-----0-----0-----0-----0----|
B |----------------------------------------------------|
F#|--3-----------3-----------3-----------3-------------|
C#|----------------------------------------------------|


C#|----------------------------------------------------|
G#|--------------------------------0-----------0-------|
E |--------2-----------2-------------------------------|
B |-----0-----0-----0-----0-----0-----0-----0-----0----|
F#|--2-----------2-----------2-----------2-------------|
C#|----------------------------------------------------|


C#|----------------------------------------------------|
G#|--------1-----------0-------------------------------|
E |--------------------------------2-----------0-------|
B |-----2-----2-----2-----2-----2-----2-----2-----2----|
F#|--0-----------0-----------0-----------0-------------|
C#|----------------------------------------------------|


C#|----------------------------------------------------|
G#|----------------------------------------------------|
E |----------------------------------------------------|
B |--------2-----------1-----------2-----------2-------|
F#|-----2-----2-----2-----2-----2-----2-----2-----2----|
C#|--0-----------0-----------0-----------0-------------|

            
            
Suggest correction
Creating personal tab
Creating personal tab
You can edit any tab online and save it as your Personal.

You can edit, replace or remove any tab part or add personal notes – all changes will be seen only by you.

Personal tabs can be accessed anytime from any device, even offline.
Learn more »
comments
print report bad tab
guest
You may want to rate the tab now too:
select rating
Wanna post a correction for this tab? Suggest correction