Oops, an error
Loading. Please wait.
We have an official Seemann tab made by UG professional guitarists. Check out the tab »
×
51,932 views 51 this week
7 commentsread comments
1 2 3 4 5
x 12
add to favorites
×
Save as Personal and add changes to this tab that will be seen only by you. Learn more ›
×
You can save this tab as Personal to edit and correct it or add notes. All changes will be seen only by you. Learn more »
launch autoscroll
font size
0
reset
how to read this tab
guitar tuner
edit
Autoscroll
slow
fast
+/-
esc
set tempo
stop
Author
Unregistered
Author/Artist: Rammstein
Title: Seemann
Album: Herzeleid
Transcribed by: Israel Ramírez
Email: rhcp_k@hotmail.com

Mas vale tarde que nunca
pongo el bajo transportado a la guitarra
y logicamente tambien la guitarra la afinacion es la normal

E-A-D-G-B-E

e|----------------------------------------------------------------------------|
B|----2-------0---------------------------------------------------------------|
G|--------------------2-------1-----------------------------------------------|
D|--2---2---2---2---2---2---2---2-----4-------4-------------------------------|
A|0-------0-------0-------0---------2---2---2---2-----------------------------|
E|--------------------------------4-------4-----------------------------------|


e|----------------------------------------------------------------------------|
B|----------------------------------------------------------------------------|
G|--------------------2-------------------------------------------------------|
D|----6-------6---------------6-------4-------2-------------------------------|
A|--2---2---2---2---4---4---4---4---4---4---4---4-----------------------------|
E|4-------4-------2-------2-------2-------2-----------------------------------|


e|----------------------------------------------------------------------------|
B|----------------------------------------------------------------------------|
G|----6-------5-------6-------6-----------------------------------------------|
D|--6---6---6---6---6---6---6---6---------------------------------------------|
A|4-------4-------4-------4---------------------------------------------------|
E|----------------------------------------------------------------------------|


e|------------------------------------------------------------------------------------------|
B|------------------------------------------------------------------------------------------|
G|------------------------------------------------------------------------------------------|
D|11-11-11-11--9-9-9-9-9-9-9-9-9--7-7-7-7-6-6-6-6-------------------------------------------|
A|11-11-11-11--9-9-9-9-9-9-9-9-9--7-7-7-7-6-6-6-6-------------------------------------------|
E|9--9--9--9---7-7-7-7-7-7-7-7-7--5-5-5-5-4-4-4-4-------------------------------------------|
 esos son los acordes los rasgeos pues la verdad no se bien cuantas veces....

e|----------------------------------------------------------------------------|
B|----------------------------------------------------------------------------|
G|----------------------------------------------------------------------------|
D|2-x-x-2---------------------------------------------------------------------|
A|2-x-x-2---------------------------------------------------------------------|
E|0-x-x-0---------------------------------------------------------------------|


e|----------------------------------------------------------------------------|
B|----------------------------------------------------------------------------|
G|----2--------------------------------6------5-----6-------------------------|
D|------------6-------4-------2h4p2--6--6---6---6---6-------------------------|
A|--4---4---4---4---4---4---4------4------4---------4-------------------------|
E|2-------2-------2-------2---------------------------------------------------|
 y asi termina hacen todo lo de el intro solo le cambian esto.



************************************

| x  Dead note
| h  Hammer-on
| p  Pull-off

************************************

            
            
Suggest correction
Creating personal tab
Creating personal tab
You can edit any tab online and save it as your Personal.

You can edit, replace or remove any tab part or add personal notes – all changes will be seen only by you.

Personal tabs can be accessed anytime from any device, even offline.
Learn more »
comments
print report bad tab
7 comments total. Showing first comments.
-1 reply
davlop91 31 Apr 05, 2009 01:05 PM

youre way off dude..

0 reply
Thall-Lifer 10 Sep 27, 2012 04:17 AM

This is almost laughable, no offense, but this is so far off, it's ridiculous.

0 reply
trevor lotter 10 May 25, 2013 02:32 AM

So whats the correct tabs pleeeeeez?

guest
Wanna post a correction for this tab? Suggest correction