Oops, an error
Loading. Please wait.
We have an official Sehnsucht tab made by UG professional guitarists. Check out the tab »
×
367 views 1 this week
no commentswrite comment
1 2 3 4 5
3 more votes to show rating
add to favorites
×
Save as Personal and add changes to this tab that will be seen only by you. Learn more ›
×
You can save this tab as Personal to edit and correct it or add notes. All changes will be seen only by you. Learn more »
launch autoscroll
font size
0
reset
guitar tuner
edit
Autoscroll
slow
fast
+/-
esc
set tempo
stop
                           Rammstein - Sehnsucht

Tabbed by: Stancranford
E-mail: simonhawkinsuk@gmail.com


-------------------------------------------------------------------------------
                             Track 1 - Sehnsucht
-------------------------------------------------------------------------------

Tuning: EADG

Main Riff

G|----------------------------------|
D|----------------------------------|
A|-------7-6---8-7---10-----8---7-5-|
E|-0-0-0-----0-----0----0-0---0-----|

Verse Fill 1

G|-------|
D|-------|
A|-------|
E|-3-2-1-|

Verse

G|----------------------------------|
D|----------------------------------|
A|-------7-6---8-7---10-----7-8-7-5-|
E|-0-0-0-----0-----0----0-0---------|

Verse Fill 2

G|---------------------------------|
D|---------------------------------|
A|-0-0-0-0-0-0-0-0-0-0-0-0---------|
E|-------------------------3-2-1-0-|

Bridge

G|-------------|
D|-------------|
A|-3-----0-----|
E|----3-----0--|

Interlude

G|-----------------------------|
D|-----------------------------|
A|-----------------------------|
E|-0-0-0-0--0-0-0--0-0-0--0-0--|

Alternate Riff

G|--------------------------------------------|
D|--------------------------------------------|
A|-------------------------3--3-2-0-----------|
E|-0---3-3-2-2-0---3-3-2-2------------3-3-2-2-|

End

G|----------------------------|
D|----------------------------|
A|-------7-6---8-7---10-----8-|
E|-0-0-0-----0-----0----0-0---|

Order:
Synth Intro
Main Riff x 6
Rest
Verse Fill 1 x 1
Verse x 7
Rest
Main Riff x 4
Verse x 7
Rest
Main Riff x 7
Verse Fill 2 x 1
Main Riff x 4
Bridge x 1
Main Riff x 2
Bridge x 1
Rest
Interlude x 4
Alternate Riff x 2
Main Riff x 7
End x 1


===============================================================================

-------------------------------------------------------------------------------
                             Track 2 - Engel
-------------------------------------------------------------------------------

Tuning: EADG

Intro/Verse

G|------------------------|-------------------------|
D|------------------------|-----------------3-3-3-3-|
A|-3-5--6-5--3-5-3-5--6-5-|-3-5--6-5--3-5-5---------|
E|------------------------|-------------------------|

Main Riff
                        x3
G|------------------------|-------------------------|
D|------------------------|-----------------3-3-3-3-|
A|-3-5--6-5--3-5-3-5--6-5-|-3-5--6-5--3-5-5---------|
E|------------------------|-------------------------|

Verse Fill

G|--------------------|
D|--------------------|
A|-3-5--6-5--3-5-3-5--|
E|--------------------|

Order:
Intro x 2
Main Riff x 2
Verse x 4
Main Riff x 4
Verse Fill x 1
Verse x 4
Main Riff x 4
Main Riff (Synth Solo) x 2
Rest
Main Riff x 4


===============================================================================

-------------------------------------------------------------------------------
                             Track 3 - Tier
-------------------------------------------------------------------------------

Tuning: EADG

Main Riff

G|-------------------|--------------------|
D|-------------------|-------------3------|
A|-3h5--3h5--6-5-3h5-|-3h5--3h5--6---6-5--|
E|-------------------|--------------------|

Verse

G|-------------------|
D|-------------------|
A|-------------------|
E|-3h5--3h5--6-5-3h5-|

Chorus 1

G|-----------------------------------------------------|------------------------------|
D|----------------------------------------1h3--1h3-3-3-|------------------------------|
A|---------------------------1h3--1h3-3-3--------------|---------------------------3--|
E|-1h3--1h3-3-3-4h6--4h6-6-6---------------------------|-1h3--1h3-3-3-4h6--4h6-6-6----|

Chorus 2
                                                    x3
G|-----------------------------------------------------|
D|----------------------------------------1h3--1h3-3-3-|
A|---------------------------1h3--1h3-3-3--------------|
E|-1h3--1h3-3-3-4h6--4h6-6-6---------------------------|

G|------------------------------------------------------|
D|----------------------------------------1h3-1-0-0-0-0-|
A|---------------------------1h3--1h3-3-3---------------|
E|-1h3--1h3-3-3-4h6--4h6-6-6----------------------------|


Order:
Guitar Intro
Main Riff x 2
Verse x 4
Main Riff x 2
Verse x 4
Main Riff x 4
Chorus 1 x 1
Main Riff x 2
Verse x 8
Main Riff x 4
Chorus 2 x 1
Rest
Main Riff x 8
Guitar Outro

| h hammer-on 

===============================================================================

-------------------------------------------------------------------------------
                             Track 4 - Bestrafe Mich
-------------------------------------------------------------------------------

Tuning: DADG

Main Riff

G|---------------------------------------------------------------------|
D|---------------------------------------------------------------------|
A|-2-----2-----2----2-----2-----2----3-----3-----3----2-----2-----2----|
D|---0-2---0-2---2----0-2---0-2---2----0-2---0-2---2----0-2---0-2---2--|

G|----------------------------------|
D|----------------------------------|
A|-3-----3-----3----2-----2-----2---|
D|---0-2---0-2---2----0-2---0-2---2-|

Pre Verse 1

G|-------------------------------------------|
D|-------------------------------------------|
A|-------------------------------------------|
D|-3p2-2-2-2--3ph-2-2-2--3p2-2-2-2--/5\-2-2--|

G|--------------------------------------------------|
D|--------------------------------------------------|
A|--------------------------------------------------|
D|-3p2-2-2-2--3p2-2-2-2--3p2-2-2-2--5-3-2-2-5-3-2-2-|

Pre Verse 2

G|-------------------------------------|
D|-------------------------------------|
A|-------------------------------------|
D|-2-------------------5-3-2-2-5-3-2-2-|

Verse 1

G|---------------------------------|
D|---------------------------------|
A|---------------------------------|
D|-2-2-2-2-2-2-2-2-2-2-2-2-2-2-1-0-|

Verse 2
                                  x3
G|---------------------------------|------------------------------|
D|---------------------------------|------------------------------|
A|---------------------------------|------------------------------|
D|-2-2-2-2-2-2-2-2-2-2-2-2-2-2-1-0-|-2-2-2-2-2-2-2-2-2-2-2--------|

Outro

G|------------------------------------------------------------------------|
D|------------------------------------------------------------------------|
A|-2-2--2-2-2--2-2--2-2-2--2-2--2-2-2--2-2--2-2-2--3-3--3-3-3--3-3--3-3-3-|
D|------------------------------------------------------------------------|

G|------------------------------------------------------------------------|
D|------------------------------------------------------------------------|
A|-------------------------3-3--3-3-3--3-3--3-3-3--2-2--2-2-2--2-2--2-2-2-|
D|-2-2--2-2-2--2-2--2-2-2-------------------------------------------------|

G|------------------------------------------------------------------------|
D|------------------------------------------------------------------------|
A|-2-2--2-2-2--2-2--2-2-2--2-2--2-2-2--2-2--2-2-2--3-3--3-3-3--3-3--3-3-3-|
D|------------------------------------------------------------------------|

G|------------------------------------------------------------------------|
D|------------------------------------------------------------------------|
A|-------------------------3-3--3-3-3--3-3--3-3-3--2-2--2-2-2--2-2--2-2-2-|
D|-2-2--2-2-2--2-2--2-2-2-------------------------------------------------|

G|---------------------------|
D|---------------------------|
A|---------------------------|
D|-2--2--5-3-2-2-5-3-2-2--2--|


Order:
Synth Intro
Main Riff x 1
Pre Verse 1 x 1
Pre Verse 2 x 1
Verse 1 x 4
Main Riff x 1
Pre Verse 1 x 1
Verse 2 x 1
Main Riff x 1
Pre Verse 1 x 1
Verse 1 x 4
Main Riff x 2
Outro x 1

| \  slide down
| /  slide up
| p  pull-off

===============================================================================

-------------------------------------------------------------------------------
                             Track 5 - Du Hast
-------------------------------------------------------------------------------

Tuning: EADG

Main Riff
                                   x3
G|------------------------------------|--------------------|
D|------------------------------------|--------------------|
A|------------------------------------|--------------------|
E|-5-3--0-0-0-0-0--5-3--0-0-0-0-0-0-0-|-3-5--5-5-5-5-5-5-5-|

Verse

G|------------------------------------|
D|------------------------------------|
A|------------------------------------|
E|-5-3--0-0-0-0-0--5-3--0-0-0-3-0-0-0-|

Verse Fill

G|---------------------|
D|---------------------|
A|---------------------|
E|-5-3--0-0-0-0-0--5-3-|

Chorus 1

G|------------------------------------|----------------------------------------|
D|------------------------------------|----------------------------------------|
A|------------------------------------|----------------------------------------|
E|-5-3--0-0-0-0-0--5-3--0-0-0-0-0-0-0-|-3-5--5-5-5-5-5-5-5--3-5--5-5-5-5-5-5-5-|

G|----------------------------------------|--------------------------------|
D|----------------------------------------|--------------------------------|
A|---3--3-3-3-3-3-3-3--5-2--2-2-2-2-2-2-2-|--------------------------------|
E|-5--------------------------------------|-5-3--0-0-0-0-0--5-3--0-0-0-0-0-|

Chorus 2

G|------------------------------------|----------------------------------------|
D|------------------------------------|----------------------------------------|
A|------------------------------------|----------------------------------------|
E|-5-3--0-0-0-0-0--5-3--0-0-0-0-0-0-0-|-3-5--5-5-5-5-5-5-5--3-5--5-5-5-5-5-5-5-|

G|----------------------------------------|
D|----------------------------------------|
A|---3--3-3-3-3-3-3-3--5-2--2-2-2-2-2-2-2-|
E|-5--------------------------------------|


Order:
Synth Intro
Main Riff x 1
Verse x 8
Main Riff x 1
Verse x 3
Verse Fill x 1
Chorus 1 x 3
Rest
Chorus 2 x 1
Rest
Chorus 1 x 3

===============================================================================

-------------------------------------------------------------------------------
                             Track 6 - Buck Dich
-------------------------------------------------------------------------------

Tuning: DADG

Main Riff

G|---------------------------------|
D|---------------------------------|
A|---------------------------------|
D|-0-0-3-0-2-0-3-0-5-0-3-0-2-2-3-2-|

Variant Riff

G|-----------------------|
D|-----------------------|
A|-----------------------|
D|-0-0-3-0-2-0-3-0-5-0-3-|

Bridge

G|-----------------------|
D|-----------------------|
A|-----------------------|
D|-1-1-1-1--1-1-1-1-1--1-|

End

G|-------------------------|
D|-------------------------|
A|-------------------------|
D|-1-1-1-1--1-1-1-1-1--1-0-|

Order:
Vocal Intro
Main Riff x 3
Variant Riff x 1
Main Riff x 15
Variant Riff x 1
Rest
Main Riff x 4
Rest
Main Riff x 8
Bridge x 2
Main Riff x 2
Bridge x 2
Main Riff x 12
Bridge x 1
End x 1

===============================================================================

-------------------------------------------------------------------------------
                             Track 7 - Spiel Mit Mir
-------------------------------------------------------------------------------

Tuning: EADG

Main Riff
                                  
G|---------------------------------------------|
D|---------------------------------------------|
A|---------------------------------------------|
E|-0-0-0---0-0-0--0-0-0---0-0-0--0-0--1-1--1-1-|

Bridge 1

G|--------------------------------------------------|
D|--------------------------------------------------|
A|-0-0-0---0-0-0--0-0-0---0-0-0--0-0-1--1-1---------|
E|-------------------------------------------3--3-3-|

G|--------------------------------------|
D|--------------------------------------|
A|-0-0-0---0-0-0--0-0-0---0-0-0--0-0-1--|
E|--------------------------------------|

Chorus
                                                x3
G|-------------------------------------------------|
D|-------------------------------------------------|
A|-2-2-2------------------0-0-0--0-0---------------|
E|---------0-0-0--0-0-0---------------1-1-1--0-0-0-|

G|------------------------------------------|
D|------------------------------------------|
A|-2-2-2------------------0-0-0--0-0--------|
E|---------0-0-0--0-0-0---------------1-1-1-|

Bridge 2

G|-------|
D|-------|
A|-1-----|
E|----3--|

G|--------------------------------------|
D|--------------------------------------|
A|-0-0-0---0-0-0--0-0-0---0-0-0--0-0-1--|
E|--------------------------------------|

Order:
Synth Intro
Main Riff x 4
Bridge 1 x 1
Main Riff x 4
Bridge 1 x 1
Chorus x 1
Rest
Main Riff x 8
Rest
Bridge 2 x 1
Chorus x 2

===============================================================================

-------------------------------------------------------------------------------
                             Track 8 - Klavier
-------------------------------------------------------------------------------

Tuning: DADG

Chorus
                                  
G|-------------------------------------------------------------------|
D|-------------------------------------------------------1------0----|
A|-1-----------------1-----------------1-----------------------------|
D|----------0-----------------0-----------------0--------------------|

Bridge

G|---------------------|
D|---------------------|
A|-0---------0---------|
D|---------------------|

Verse

G|--------------------------------------|
D|--------------------------------------|
A|-0---------0--------------------------|
D|---------------------3-------2--------|

Interlude

G|---------------------------------------------------------------|
D|---------------------------------------------------------------|
A|-2---------0--------2--------0--------2-3--------0-------------|
D|------------------------------------------------------2--------|


Order:
No Bass until 1st Chorus
Chorus x 1
Bridge x 1
Verse x 2
Chorus x 2
Interlude x 4
Chorus x 2

===============================================================================

-------------------------------------------------------------------------------
                             Track 9 - Alter Mann
-------------------------------------------------------------------------------

Tuning: DADG

Riff Fill
                                                           
G|-------|
D|-------|
A|-------|
D|-0-0-0-|

Main Riff

G|----------------------------------------------------|
D|----------------------------------------------------|
A|----------------------------------------------------|
D|-0-2--2-2-2--0-2--2-2-2--0-2--2-2-2--0-2--2-0-2h3p2-|

Verse

G|-----------------------------------------|
D|-----------------------------------------|
A|-----------------------------------------|
D|-2--\------2--\------2--\------2--\------|

Chorus
                                                                                               
G|----------------------------------------------------------------------------------------------------|
D|-------------------------------------------------------------2-2--2-2-2-----------------------------|
A|-3-3--3-3-3--3-3--3-3-3--2-2--2-2-2--2-2--2-2-2--3-3--3-3-3--------------2-2--2-2-2h3p2--2-2--2-2-2-|
D|----------------------------------------------------------------------------------------------------|

Chorus Fill

G|----------------------------------|
D|----------------------------------|
A|-3-3--3-3-3--3-3--3-3-3--0--------|
D|----------------------------------|

End

G|-----|
D|-----|
A|-----|
D|-0---|


Order:
Drum Intro
Riff Fill x 1
Main Riff x 4
Verse x 1
Riff Fill x 1
Main Riff x 2
Verse x 1
Riff Fill x 1
Main Riff x 1
Chorus x 2
Chorus Fill x 1
Main Riff x 2
Verse x 1
Riff Fill x 1
Main Riff x 1
Chorus x 2
Rest
Chorus x 4
Chorus Fill x 1
End x 1

| \  slide down
| h  hammer-on
| p  pull-off

===============================================================================

-------------------------------------------------------------------------------
                             Track 10 - Eifersucht
-------------------------------------------------------------------------------

Tuning: DADG

Main Riff
                                                           
G|--------------------------|--------------------------|
D|--------------------------|--------------------------|
A|--------------------------|--------------------------|
D|-2--2--2-2-2--2--2-2--2-6-|-2--2--2-2-2--2--2-2--2-5-|

Bridge

G|--------------------------------------------------------------------------|
D|--------------------------------------------------------------------------|
A|--------------------------------------------------------------------------|
D|-0-----2--3--0-----2--3--0--0-0--0--0--0-0--2--3--0--0-0--0--0--0-0--2--1-|

Fill

G|--------|
D|--------|
A|--------|
D|-2--2-3-|

End

G|-----|
D|-----|
A|-----|
D|-2---|


Order:
Synth Intro
Main Riff x 8
Bridge x 2
Main Riff x 4
Bridge x 2
Main Riff x 8
Rest
Fill x 1
Bridge x 2
Main Riff x 12
End x 1

===============================================================================

-------------------------------------------------------------------------------
                         Track 11 - Kuss Mich (Fellfrosch)
-------------------------------------------------------------------------------


Tuning: DADG

Main Riff

G|-----------------------|
D|-----------------------|
A|-----------------------|
D|-0h3-0h3-0-0-0-3-3-0-0-|

Verse
Play with distortion
G|-----------------------|
D|-----------------------|
A|-----------------------|
D|-0h3-0h3-0-0-0-3-3-0-0-|

Chorus

G|------------------------------------|
D|------------------------------------|
A|----------------------------3---0---|
D|-0--------2--------3----------------|

End

G|-----|
D|-----|
A|-----|
D|-0---|

Order:
Guitar Intro
Main Riff x 8
Verse x 8
Chorus x 2
Main Riff x 4
Verse x 8
Chorus x 2
Main Riff x 8
Rest
Verse x 8
Chorus x 2
Main Riff x 16
End x 1

            
            
Suggest correction
Creating personal tab
Creating personal tab
You can edit any tab online and save it as your Personal.

You can edit, replace or remove any tab part or add personal notes – all changes will be seen only by you.

Personal tabs can be accessed anytime from any device, even offline.
Learn more »
Give kudos to tab author, rate the tab!
1 2 3 4 5
comments
print report bad tab
guest
You may want to rate the tab now too:
select rating
Wanna post a correction for this tab? Suggest correction