Oops, an error
Loading. Please wait.

Sehnsucht Bass Tab

version 3
version 3

Whole song

Interactive

288 views 1 this week
no commentswrite comment
1 2 3 4 5
please rate
add to favorites
launch autoscroll
font size
0
reset
guitar tuner
Tab Pro tools
  • play this tab
  • loop segment
  • change instrument
  • show fretboard
  • metronome
×
Best way to learn
"Sehnsucht"
Autoscroll
slow
fast
+/-
esc
set tempo
stop
Contributor
Difficulty
Tuning
novice
D A D G B E
This is the main line of the song:

G|----------------------------------|
D|----------------------------------|
A|----------------------------------|
D|-2-2-2-2-1-2-3-2-2-5-2-2-4-4-2-0--|

At 2:27 and 2:38:

G|------------------------------------|
D|------------------------------------|
A|-3----------------0-----------------|
D|---------5------------------2-------|

At 2:55, do this twice:

G|---------------------------------------------------------|
D|---------------------------------------------------------|
A|---------------------------------------------------------|
D|-2-2-2--2-2-2-2-2--2--2--2-0-2-2-2--2-2-2-2-2--2--2--2-5-|

Then do this twice too:

G|----------------------------------------------------------|
D|----------------------------------------------------------|
A|----------------------------------------------------------|
D|-2-2--2--2--2-2--2--5-5-4-0-2-2--2--2--2--2-2--2--5-5-4-0-|


G|-------------------------------------------------------|
D|-------------------------------------------------------|
A|-------------------------------------------------------|
D|-2-2--2--2--2--2-2--2--2-0--2-2--2--2--2-2--2--5-5-4-0-|


That's all.

Tabbed by Juan M. Fozzatti.
comments
We did not receive enough feedback on this tab! Please rate:
print report bad tab
1 2 3 4 5
I want to post or [tab]
guest
You may want to rate the tab now too:
select rating
Please do not post tabs as comments. Select "correction" instead!