Oops, an error
Loading. Please wait.

Sonne Bass

version 1
version 1

Whole song

Interactive

37,343 views 114 this week
21 commentsread comments
1 2 3 4 5
x 33
add to favorites
launch autoscroll
font size
0
reset
guitar tuner
backing track
0:00
0:00
×
Best way to learn
"Sonne"
Autoscroll
slow
fast
+/-
esc
set tempo
stop
Song: sonne
Band:Rammstein
album:Mutter
Tabbed by Steven Warner

Now this is the correct tab! At last...

G|--------------------------------------------------|
D|--------------------------------------------------|
A|--------------------------------------------------|
D|0-6-0-6-5-0|0-6-0-6-0|0-6-0-6-5-0|0-6-0-6-5-5-5---| x2

G|------------------------|
D|------------------------|
A|------------------------|
D|0-6-0-6-5-0|0-6-0-6-0---| x3

G|---------------------|
D|---------2-2---------|
A|2----2-2-----5-5-3-3-|
D|---------------------|

G|----------------|
D|----2-2---------|
A|2-2-----5-5-3-3-|
D|----------------|

G|-----------------|
D|2-2--------------|
A|----2-2----------|
D|---------5-5-4-4-|

G|-----------------|
D|2-2--------------|
A|----2-2----------|
D|---------5-5-4-4-|

G|-------------------------------------------------|
D|-------------------------------------------------|
A|-------------------------------------------------|
D|0-6-0-6-5-0|0-6-0-6-0|0-6-0-6-5-0|0-6-0-6-5-5-5--|

G|------------------------|
D|------------------------|
A|------------------------|
D|0-6-0-6-5-0|0-6-0-6-0---| x3

G|---------------------|
D|---------2-2---------|
A|2----2-2-----5-5-3-3-|
D|---------------------|

G|----------------|
D|----2-2---------|
A|2-2-----5-5-3-3-|
D|----------------|

G|-----------------|
D|2-2--------------|
A|----2-2----------|
D|---------5-5-4-4-|

G|-----------------|
D|2-2--------------|
A|----2-2----------|
D|---------5-5-4-4-|

G|----------------|
D|----2-2---------|
A|2-2-----5-5-3-3-|
D|----------------|

G|----------------|
D|----2-2---------|
A|2-2-----5-5-3-3-|
D|----------------|

G|-----------------|
D|2-2--------------|
A|----2-2----------|
D|---------5-5-4-4-|

G|-----------------|
D|2-2--------------|
A|----2-2----------|
D|---------5-5-4-4-|

break for a while

G|----------------|
D|----2-2---------|
A|2-2-----5-5-3-3-|
D|----------------|

G|----------------|
D|----2-2---------|
A|2-2-----5-5-3-3-|
D|----------------|

G|-----------------|
D|2-2--------------|
A|----2-2----------|
D|---------5-5-4-4-|

G|-----------------|
D|2-2--------------|
A|----2-2----------|
D|---------5-5-4-4-|

G|----------------|
D|----2-2---------|
A|2-2-----5-5-3-3-|
D|----------------|

G|----------------|
D|----2-2---------|
A|2-2-----5-5-3-3-|
D|----------------|

G|-----------------|
D|2-2--------------|
A|----2-2----------|
D|---------5-5-4-4-|

G|-----------------|
D|2-2--------------|
A|----2-2----------|
D|---------5-5-4-4-|

There you go: This tab is 100% correct!
Any comments or suggestions then E-mail me at
Steven.Warner@dial.pipex.com
enjoy and ignore my other sonne tab!
Suggest correction
comments
print report bad tab
21 comments total. Showing first comments.
0 reply
Steven Warner 210 Jan 26, 2002 07:00 PM

I think the "7" may be wrong. If you think it is replace it with a "0".

-1 reply
olli 15 270 Jan 26, 2002 07:00 PM

No Way

-1 reply
olli 15 270 Jan 26, 2002 07:00 PM

No Way

guest
You may want to rate the tab now too:
select rating
Wanna post a correction for this tab? Suggest correction