Oops, an error
Loading. Please wait.

Stein Um Stein tab

version 2
version 2

Whole song

Interactive

39,226 views 27 this week
4 commentsread comments
1 2 3 4 5
x 12
add to favorites
×
Save as Personal and add changes to this tab that will be seen only by you. Learn more ›
×
You can save this tab as Personal to edit and correct it or add notes. All changes will be seen only by you. Learn more »
launch autoscroll
font size
0
reset
how to read this tab
guitar tuner
edit
Autoscroll
slow
fast
+/-
esc
set tempo
stop
Author
Difficulty
[Verse 1]
(Guitar 1)
D|-------------------|
A|-------------------|
F|*-------------3---*|
C|*-0---------3---3-*|x4
G|----------1--------|
C|--0----------------|

D|-------------------|
A|-------------------|
F|--------------3----|
C|--3---------3---3--|
G|----------1--------|
C|-------------------|

D|-------------------|
A|-------------------|
F|*-------------3---*|
C|*-0---------3---3-*|x10
G|----------1--------|
C|--0----------------|

D|-------------------|
A|-------------------|
F|-------------------|
C|------3-------5----|
G|----3---3---5---5--|
C|--3-------5--------|

[Guitar 2]
D|-------------------|
A|-------------------|
F|*-------------3---*|
C|*-0---------3---3-*|x15
G|----------1--------|
C|--0----------------|

D|-------------------|
A|-------------------|
F|-------------------|
C|------3-------5----|
G|----3---3---5---5--|
C|--3-------5--------|

[Chorus]
D|---------------------------------------------|
A|---------------------------------------------|
F|---------------------------------------------|
C|--12-10-12-12-10-0-12-10-10-8-0-10-8-0-10-8--|x3
G|--12-10-12-12-10-0-12-10-10-8-0-10-8-0-10-8--|
C|--12-10-12-12-10-0-12-10-10-8-0-10-8-0-10-8--|

D|--------------------------------------------|
A|--------------------------------------------|
F|--------------------------------------------|
C|--12-10-0-12-10-0-12-10-10-8-0-10-8-0-10-8--|
G|--12-10-0-12-10-0-12-10-10-8-0-10-8-0-10-8--|
C|--12-10-0-12-10-0-12-10-10-8-0-10-8-0-10-8--|

[Verse 2]
(Clean guitars with chorus and delay)
(Both guitars)
D|-------------------|
A|-------------------|
F|*-------------3---*|
C|*-0---------3---3-*|x7
G|----------1--------|
C|--0----------------|

D|-------------------|
A|-------------------|
F|-------------------|
C|------3-------5----|
G|----3---3---5---5--|
C|--3-------5--------|

[Bridge]
(02:03)
(Guitar 1)
D|--------------------------------------|
A|--------------------------------------|
F|*-----------------------------10-----*|
C|*-0-------8-------0-------8---10-----*|x2
G|--0-------8-------0-------8---8-------|
C|--0-------8-------0-------8-----------|

D|--------------------------------------|
A|--------------------------------------|
F|--------------------------------------|
C|--0-------8-------0-------8-----------|
G|--0-------8-------0-------8-----------|
C|--0-------8-------0-------8-----------|

D|--------------------------------------|
A|--------------------------------------|
F|----------8-------10------12----------|
C|--0-------8-------10------12----------|
G|--0-------8-------8-------10----------|
C|--0-----------------------------------|

[Guitar 2]
D|--------------------------------------|
A|--------------------------------------|
F|*------------------------------------*|
C|*-0-------8-------0-------8---3------*|x2
G|--0-------8-------0-------8---3-------|
C|--0-------8-------0-------8---3-------|

D|--------------------------------------|
A|--------------------------------------|
F|--------------------------------------|
C|--0-------8-------0-------8-----------|
G|--0-------8-------0-------8-----------|
C|--0-------8-------0-------8-----------|

D|--------------------------------------|
A|--------------------------------------|
F|--------------------------------------|
C|--0-------8-------3-------5-----------|
G|--0-------8-------3-------5-----------|
C|--0-------8-------3-------5-----------|

[Solo]
(With Whammy pedal)
(For every note, push the pedal forward to rise the pitch
one octave.)
D|--------------------------------------------------|
A|--15~------15~------15~------15~------15~---15~---|
F|--------------------------------------------------|
C|--------------------------------------------------|
G|--------------------------------------------------|
C|--------------------------------------------------|

D|--------------------------------------------------|
A|--15~------15~------15~------15~------15~---15~---|
F|--------------------------------------------------|
C|--------------------------------------------------|
G|--------------------------------------------------|
C|--------------------------------------------------|

D|--------------------------------------------------|
A|--15~------15~------15~------15~------15/18-18~---|
F|--------------------------------------------------|
C|--------------------------------------------------|
G|--------------------------------------------------|
C|--------------------------------------------------|

D|--------------------------------------------------|
A|--13~---------------------------------------------|
F|-----------14~------12~------14~------9~----10~---|
C|--------------------------------------------------|
G|--------------------------------------------------|
C|--------------------------------------------------|

D|--------------------------------------------------|
A|--15~------15~------15~------15~------15~---15~---|
F|--------------------------------------------------|
C|--------------------------------------------------|
G|--------------------------------------------------|
C|--------------------------------------------------|

D|--------------------------------------19~---------|
A|--15~------15~------15~------15~------------------|
F|--------------------------------------------------|
C|--------------------------------------------------|
G|--------------------------------------------------|
C|--------------------------------------------------|

D|--------------------------------------------------|
A|--15~------15~------15~------15~------15/18-18~---|
F|--------------------------------------------------|
C|--------------------------------------------------|
G|--------------------------------------------------|
C|--------------------------------------------------|

D|--------------------------------------------------|
A|--13~---------------------------------------------|
F|-----------14~------12~------14~------9~----10~---|
C|--------------------------------------------------|
G|--------------------------------------------------|
C|--------------------------------------------------|

(Rhythm behind the solo)
(repeats till the end)
D|-----------------------------------------|
A|-----------------------------------------|
F|*----------------------------------------|
C|*----------------------------------------|
G|-----------------------------------------|
C|--12-0-0-12-0-0-12-0-12-0-0-12-0-0-12-0--|

D|--------------------------------------|
A|--------------------------------------|
F|-------------------------------------*|
C|-------------------------------------*|
G|--------------------------------------|
C|--10-8-8-10-8-8-10-8-8-7-7-7-7-7-7-0--|


************************************

| *  Natural harmonic
| ~  Vibrato
| /  Slide up

************************************
Suggest correction
Creating personal tab
Creating personal tab
You can edit any tab online and save it as your Personal.

You can edit, replace or remove any tab part or add personal notes – all changes will be seen only by you.

Personal tabs can be accessed anytime from any device, even offline.
Learn more »
comments
print report bad tab
4 comments total. Showing first comments.
0 reply
Bee-Ay 1,433 Feb 27, 2006 08:04 AM

Love you :)

0 reply
hamptoncz 10 Oct 15, 2006 12:27 AM

anyone else notice that the chorus sounds alot like a part from rosenrot?

0 reply
slipknot1991 30 Feb 14, 2009 01:19 PM

sounds great

guest
You may want to rate the tab now too:
select rating
Wanna post a correction for this tab? Suggest correction