Oops, an error
Loading. Please wait.

Stirb Nicht Vor Mir Dont Die Before I Do tab

version 2
version 2

Whole song

Interactive

50,724 views 12 this week
8 commentsread comments
1 2 3 4 5
x 10
add to favorites
×
Save as Personal and add changes to this tab that will be seen only by you. Learn more ›
×
You can save this tab as Personal to edit and correct it or add notes. All changes will be seen only by you. Learn more »
launch autoscroll
font size
0
reset
how to read this tab
guitar tuner
edit
Autoscroll
slow
fast
+/-
esc
set tempo
stop
Intro:
D|------7-------7-------7-------7----|
A|----9---9---9---9---9---9---9---9--|
F|--9-------9-------8-------8--------|
C|-----------------------------------|
G|-----------------------------------|
C|-----------------------------------|

D|------7-------7--------0--------0----|
A|----9---9---9---9--------------------|
F|--9-------9----------8---8----8------|
C|------------------11-------11-----9--|
G|-------------------------------------|
C|-------------------------------------|

Chorus:
D|------7-------7-------7-------7----|
A|----9---9---9---9---9---9---9---9--|
F|--9-------9-------8-------8--------|
C|-----------------------------------|
G|-----------------------------------|
C|-----------------------------------|

D|------7-------7--------0--------0--------|
A|----9---9---9---9------------------------|
F|--9-------9----------8---8----8---8-8b9--|
C|------------------11-------11------------|
G|-----------------------------------------|
C|-----------------------------------------|

Last variation (3.32)
D|------7-------7-------7--------7-----|
A|----9---9---9---9---9---9---9---9----|
F|*-9-------9-------8-------8----------|
C|*------------------------------------|
G|-------------------------------------|
C|-------------------------------------|

D|------4-------4-------7-------7------|
A|----7---7---7---7---9---9---9---9----|
F|--6-------6-------8-------8---------*|
C|------------------------------------*|x2
G|-------------------------------------|
C|-------------------------------------|

The whole song is built up by the same acoustic patterns, and an electric guitar with a 
effect can be heard in the

background (especially at 2.48)


Chorus:
B5       F#5      G5       E5

At 2.17, 3.29 and 3.51 the chorus ends with an A5


Verse:
G5  F#5  B5       G5  F#5  B5          x3

E5  D5   B5       G5       F#5


Middle part from 2.21:
D5       F#5     G5        E5 x2

G5       F#5

G5       B5      G5        B5     \
                                   }(electric guitar only)
G5       B5      G5        F#5    /


Strum pattern for acoustic parts:

D=Downstroke U=Upstroke

D|--------------------------------------------------|
A|--D-----D-----D-----D--U-----U--D-----D-----D-----|
F|--------------------------------------------------|
C|--x-----x-----x-----x--x-----x--x-----x-----x-----|
G|--x-----x-----x-----x--x-----x--x-----x-----x-----|
C|--x-----x-----x-----x--x-----x--x-----x-----x-----|


Chords:
   D5 E5 F#5 G5  A5  B5
D|----------------------|
A|-5--7--9---10--12--14-|
F|-4--6--8---9---11--13-|
C|-2--4--6---7---9---11-|
G|-2--4--6---7---9---11-|
C|-2--4--6---7---9---11-|

You could also switch out the x5 chords with majors and minors in standard D tuning:

   D  Em F#m G  A  Bm
D|-0--2--4---0--2--4--|
A|-0--2--4---2--4--5--|
F|-1--2--4---2--4--6--|
C|-2--4--6---2--4--6--|
G|-2--4--6---0--2--4--|
D|-0--2--4------------|

            
            
Suggest correction
Creating personal tab
Creating personal tab
You can edit any tab online and save it as your Personal.

You can edit, replace or remove any tab part or add personal notes – all changes will be seen only by you.

Personal tabs can be accessed anytime from any device, even offline.
Learn more »
comments
print report bad tab
8 comments total. Showing first comments.
0 reply
SOADRox 101 Feb 21, 2006 10:32 AM

Real accurate, good job man!

0 reply
XanTscia 10 Jan 02, 2007 09:16 AM

the 11--8--0 part on the second, doesnt seems accurate to me..

0 reply
zaleon 10 Apr 11, 2007 06:55 PM

it's wrong, too high

guest
You may want to rate the tab now too:
select rating
Wanna post a correction for this tab? Suggest correction