Oops, an error
Loading. Please wait.

Tier tab

version 1
version 1

Whole song

Interactive

16,134 views 6 this week
5 commentsread comments
1 2 3 4 5
x 6
add to favorites
×
Save as Personal and add changes to this tab that will be seen only by you. Learn more ›
×
You can save this tab as Personal to edit and correct it or add notes. All changes will be seen only by you. Learn more »
launch autoscroll
font size
0
reset
how to read this tab
guitar tuner
edit
Autoscroll
slow
fast
+/-
esc
set tempo
stop
Author
Difficulty
Tuning: Standard

[Intro]
(clean)
e|-5-5-5-5-5--5-5--x-----------5-5-5-5-5--5-5--x------------|
B|-5-5-5-5-5--5-5--x-5--5--x-x-3-3-3-3-3--3-3--x-3--x-3-x-x-|
G|-6-6-6-6-6--6-6--x-5--5--x-x-2-2-2-2-2--2-2--x-4--x-4-x-x-|
D|-7-7-7-7-7--7-7--x-5--5--x-x-0-0-0-0-0--0-0--x-5--x-5-x-x-|
A|-7-7-7-7-7--7-7--x-3--3--x-x-------------------5--x-5-x-x-|
E|-5-5-5-5-5--5-5--x-----------------------------3--x-3-x-x-|

e|-5-5-5-5-5--5-5--x-----------5-|
B|-5-5-5-5-5--5-5--x-5--5--x-x-3-|
G|-6-6-6-6-6--6-6--x-5--5--x-x-2-|
D|-7-7-7-7-7--7-7--x-5--5--x-x-0-|
A|-7-7-7-7-7--7-7--x-3--3--x-x---|
E|-5-5-5-5-5--5-5--x-------------|

[Riff Aa]
(Gtr 1)
e|---------------------------------------------------------------------|
B|---------------------------------------------------------------------|
G|---------------------------------------------------------------------|
D|-----------------10---9---7/9---------------------10---12---10\9-----|
A|-5h7-----5h7------8---7---5/7-----5h7-----5h7------8---10----8\7-----|
E|-----0-0-----0-0----0---0-----0-0-----0-0-----0-0----0----0------0-0-|
       . .     . .    .   .     . .     . .     . .    .    .      . .

(Gtr 2)
e|---------------------------------------------------------------------|
B|---------------------------------------------------------------------|
G|-7/9-----7/9-----10---9---7/9-----7/9-----7/9-----10---12---10\9-----|
D|-x-------x--------x---x---x-------x-------x--------x----x----x-------|
A|-5/7-----5/7------8---7---5/7-----5/7-----5/7------8---10----8\7-----|
E|-----0-0-----0-0----0---0-----0-0-----0-0-----0-0----0----0------0-0-| (3x)
       . .     . .    .   .     . .     . .     . .    .    .      . .

(Gtr 1)
e|---------------------------------------------------------------------|
B|---------------------------------------------------------------------|
G|---------------------------------------------------------------------|
D|-----------------10---9---7/9---------------------10---12---10\9-9-9-|
A|-5h7-----5h7------8---7---5/7-----5h7-----5h7------8---10----8\7-7-7-|
E|-----0-0-----0-0----0---0-----0-0-----0-0-----0-0----0----0----------|
       . .     . .    .   .     . .     . .     . .    .    .

(Gtr 2)
e|---------------------------------------------------------------------|
B|---------------------------------------------------------------------|
G|-7/9-----7/9-----10---9---7/9-----7/9-----7/9-----10---12---10\9-9-9-|
D|-x-------x--------x---x---x-------x-------x--------x----x----x---x-x-|
A|-5/7-----5/7------8---7---5/7-----5/7-----5/7------8---10----8\7-7-7-|
E|-----0-0-----0-0----0---0-----0-0-----0-0-----0-0----0----0----------|
      . .     . .    .   .     . .     . .     . .    .    .

[Riff Ab]
(Gtr 1)
e|---------------------------------------------------------------------|
B|---------------------------------------------------------------------|
G|---------------------------------------------------------------------|
D|-----------------10---9---7/9---------------------10---12---10\9-----|
A|-5h7-----5h7------8---7---5/7-----5h7-----5h7------8---10----8\7-----|
E|-----0-0-----0-0----0---0-----0-0-----0-0-----0-0----0----0------0-0-|
       . .     . .    .   .     . .     . .     . .    .    .      . .

(Gtr 2)
e|---------------------------------------------------------------------|
B|---------------------------------------------------------------------|
G|-7/9-----7/9-----10---9---7/9-----7/9-----7/9-----10---12---10\9-----|
D|-x-------x--------x---x---x-------x-------x--------x----x----x-------|
A|-5/7-----5/7------8---7---5/7-----5/7-----5/7------8---10----8\7-----|
E|-----0-0-----0-0----0---0-----0-0-----0-0-----0-0----0----0------0-0-|
       . .     . .    .   .     . .     . .     . .    .    .      . .

(Gtr 1)
e|---------------------------------------------------------------------|
B|---------------------------------------------------------------------|
G|---------------------------------------------------------------------|
D|-----------------10---9---7/9---------------------10---12---10\9-9-9-|
A|-5h7-----5h7------8---7---5/7-----5h7-----5h7------8---10----8\7-7-7-|
E|-----0-0-----0-0----0---0-----0-0-----0-0-----0-0----0----0----------|
       . .     . .    .   .     . .     . .     . .    .    .

(Gtr 2)
e|---------------------------------------------------------------------|
B|---------------------------------------------------------------------|
G|-7/9-----7/9-----10---9---7/9-----7/9-----7/9-----10---12---10\9-9-9-|
D|-x-------x--------x---x---x-------x-------x--------x----x----x---x-x-|
A|-5/7-----5/7------8---7---5/7-----5/7-----5/7------8---10----8\7-7-7-|
E|-----0-0-----0-0----0---0-----0-0-----0-0-----0-0----0----0----------|
       . .     . .    .   .     . .     . .     . .    .    .

[Riff Aa]
(Gtr 1)
e|---------------------------------------------------------------------|
B|---------------------------------------------------------------------|
G|---------------------------------------------------------------------|
D|-----------------10---9---7/9---------------------10---12---10\9-----|
A|-5h7-----5h7------8---7---5/7-----5h7-----5h7------8---10----8\7-----|
E|-----0-0-----0-0----0---0-----0-0-----0-0-----0-0----0----0------0-0-|
       . .     . .    .   .     . .     . .     . .    .    .      . .

(Gtr 2)
e|---------------------------------------------------------------------|
B|---------------------------------------------------------------------|
G|-7/9-----7/9-----10---9---7/9-----7/9-----7/9-----10---12---10\9-----|
D|-x-------x--------x---x---x-------x-------x--------x----x----x-------|
A|-5/7-----5/7------8---7---5/7-----5/7-----5/7------8---10----8\7-----|
E|-----0-0-----0-0----0---0-----0-0-----0-0-----0-0----0----0------0-0-| (3x)
       . .     . .    .   .     . .     . .     . .    .    .      . .

(Gtr 1)
e|---------------------------------------------------------------------|
B|---------------------------------------------------------------------|
G|---------------------------------------------------------------------|
D|-----------------10---9---7/9---------------------10---12---10\9-9-9-|
A|-5h7-----5h7------8---7---5/7-----5h7-----5h7------8---10----8\7-7-7-|
E|-----0-0-----0-0----0---0-----0-0-----0-0-----0-0----0----0----------|
       . .     . .    .   .     . .     . .     . .    .    .

(Gtr 2)
e|---------------------------------------------------------------------|
B|---------------------------------------------------------------------|
G|-7/9-----7/9-----10---9---7/9-----7/9-----7/9-----10---12---10\9-9-9-|
D|-x-------x--------x---x---x-------x-------x--------x----x----x---x-x-|
A|-5/7-----5/7------8---7---5/7-----5/7-----5/7------8---10----8\7-7-7-|
E|-----0-0-----0-0----0---0-----0-0-----0-0-----0-0----0----0----------|
      . .     . .    .   .     . .     . .     . .    .    .

[Riff B]
e|---------------------------------------|
B|---------------------------------------|
G|---------------------------------------|
D|-5/7-----5/7-----7/10-------7/10-------|
A|-5/7-7-7-5/7-7-7-7/10-10-10-7/10-10-10-|
E|-3/5-5-5-3/5-5-5-5/-8--8--8-5-/8--8--8-|
       . .     . .       .  .       .  .

e|-------------------------------------------------|
B|-------------------------------------------------|
G|-------------------------------------------------|
D|-10/12-------10/12-------10/12-12-12-10/12-12-12-|
A|-10/12-12-12-10/12-12-12--8/10-10-10--8/10-10-10-|
E|--8/10-10-10--8/10-10-10-------------------------|
          .  .        .  .        .  .        .  .

e|------------------------------------------|
B|------------------------------------------|
G|------------------------------------------|
D|-5/7-----5/7-----7/10-------7/10-------12-|
A|-5/7-7-7-5/7-7-7-7/10-10-10-7/10-10-10-12-|
E|-3/5-5-5-3/5-5-5-5/-8--8--8-5-/8--8--8-10-|
       . .     . .       .  .       .  .

RIFF Ab


[Riff C]
e|----------------|
B|----------------|
G|----------------|
D|-x-x-x-7/9--7/9-|
A|-x-x-x-7/9--7/9-|
E|-x-x-x-5/7--5/7-| (4x)


RIFF Aa

[Riff B]
e|---------------------------------------|
B|---------------------------------------|
G|---------------------------------------|
D|-5/7-----5/7-----7/10-------7/10-------|
A|-5/7-7-7-5/7-7-7-7/10-10-10-7/10-10-10-|
E|-3/5-5-5-3/5-5-5-5/-8--8--8-5-/8--8--8-|
       . .     . .       .  .       .  .

e|-------------------------------------------------|
B|-------------------------------------------------|
G|-------------------------------------------------|
D|-10/12-------10/12-------10/12-12-12-10/12-12-12-|
A|-10/12-12-12-10/12-12-12--8/10-10-10--8/10-10-10-|
E|--8/10-10-10--8/10-10-10-------------------------| (3x)
        .  .        .  .        .  .        .  .

e|---------------------------------------|
B|---------------------------------------|
G|---------------------------------------|
D|-5/7-----5/7-----7/10-------7/10-------|
A|-5/7-7-7-5/7-7-7-7/10-10-10-7/10-10-10-|
E|-3/5-5-5-3/5-5-5-5/-8--8--8-5-/8--8--8-|
       . .     . .       .  .       .  .

e|-------------------------------------------|
B|-------------------------------------------|
G|-------------------------------------------|
D|-10/12-------10/12-------10/12-------------|
A|-10/12-12-12-10/12-12-12-10/12-------------|
E|--8/10-10-10--8/10-10-10--8/10-0-0-0-0-0-0-|
        .  .        .  .       . . . . . .

[Riff A]
(Gtr 1)
e|---------------------------------------------------------------------|
B|---------------------------------------------------------------------|
G|---------------------------------------------------------------------|
D|-----------------10---9---7/9---------------------10---12---10\9-----|
A|-5h7-----5h7------8---7---5/7-----5h7-----5h7------8---10----8\7-----|
E|-----0-0-----0-0----0---0-----0-0-----0-0-----0-0----0----0------0-0-|
       . .     . .    .   .     . .     . .     . .    .    .      . .

(Gtr 2)
e|---------------------------------------------------------------------|
B|---------------------------------------------------------------------|
G|-7/9-----7/9-----10---9---7/9-----7/9-----7/9-----10---12---10\9-----|
D|-x-------x--------x---x---x-------x-------x--------x----x----x-------|
A|-5/7-----5/7------8---7---5/7-----5/7-----5/7------8---10----8\7-----|
E|-----0-0-----0-0----0---0-----0-0-----0-0-----0-0----0----0------0-0-| (8x)
       . .     . .    .   .     . .     . .     . .    .    .      . .


************************************

| x  Dead note
| /  Slide up
| \  Slide down
| h  Hammer-on
| .  Staccato

************************************
Suggest correction
Creating personal tab
Creating personal tab
You can edit any tab online and save it as your Personal.

You can edit, replace or remove any tab part or add personal notes – all changes will be seen only by you.

Personal tabs can be accessed anytime from any device, even offline.
Learn more »
comments
print report bad tab
5 comments total. Showing first comments.
0 reply
svelle 286 Mar 15, 2008 07:08 AM

i always thought they'd play in drop C or D?

0 reply
Engel1 234 Mar 17, 2008 08:42 AM

They have sone songs that are in Standard

+4 reply
BroDD 368 Mar 23, 2008 05:36 AM

This tab is NOT correct, this song should be in drop d!
the riff should be:

|------------------8---7---5/7----------------------8---10----8\7-----|
|-3h5-----3h5------6---5---3/5-----5h7-----5h7------6---8-----6\5-----|
|-----0-0-----0-0----0---0-----0-0-----0-0-----0-0----0----0------0-0-|

guest
You may want to rate the tab now too:
select rating
Wanna post a correction for this tab? Suggest correction