Oops, an error
Loading. Please wait.

Weisses Fleisch Live tab

version 5
version 5
151 views 3 this week
no commentswrite comment
1 2 3 4 5
3 more votes to show rating
add to favorites
×
Save as Personal and add changes to this tab that will be seen only by you. Learn more ›
×
You can save this tab as Personal to edit and correct it or add notes. All changes will be seen only by you. Learn more »
launch autoscroll
font size
0
reset
how to read this tab
guitar tuner
edit
Autoscroll
slow
fast
+/-
esc
set tempo
stop
Weisses Fleisch Live version
----------------------------

This song is VERY unique, because you can play it in many different ways: drop D (For beginners), or Eb 
(for advanced players) This is based off of the drop D tabs for
this song, because live thay play it like this (I'm pretty sure). But I also added the intense
"instrumental part" at the end, I guess you could call it. I make this
song darker by tuning to drop C and playing this tab, but you should at least get the hang of this first so 
you really understand the sound it SHOULD make.

Here we go...

Intro

           8x
e|---------||----|
B|*-------*||----|
G|---------||-4b-|
D|---------||----|
A|*---2/3-*||----|
D|--2-2/3--||----|
    .

Then...

e|----------------------------------------------------------|
B|*---------------------------------------------------------|
G|----------------------------------------------------------|
D|---------------------------------------------------2--3--2|
A|*--2/3-----2/3-----2/3-----2/3-----2/3-----2/3-----2--3--2|
D|---2/3--2--2/3--2--2/3--2--2/3--2--2/3--2--2/3--2--2--3--2|
          .       .       .       .       .       .

Repeat back to main riff

e|-------------------------------------|
B|*------------------------------------|
G|----------------------------------4b-|
D|-------------------------------------|
A|*--2/3-----2/3-----2/3-----2/3-------|
D|---2/3--2--2/3--2--2/3--2--2/3--2----|
          .       .       .       .

Note: There are different endings to the main riff when they play it live:

This: (What they USUALLY do live)                      

e|-------------------------------------|                              
B|*------------------------------------|
G|-------------------------------------|                                 
D|-------------------------------------|                                 
A|*-----2/3-----2/3-----2/3-----2--3--2|                                 
D|---2--2/3--2--2/3--2--2/3--2--2--3--2|                                     
     .       .       .       . 

                   OR

This:(What they did on Rammstein in Amerika, and I find it easier)

e|----------------------------------------|                              
B|*---------------------------------------|
G|-------------------------------------4b-|                                 
D|----------------------------------------|                                 
A|*-----2/3-----2/3-----2/3-----2--3------|                                 
D|---2--2/3--2--2/3--2--2/3--2--2--3------|                                     
     .       .       .       .
                                                
                    ^
Do all of this until you reach the chorus


Chorus:

e|-----------------------|
B|-----------------------|
G|-----------------------|
D|-3--0~~---5--3--2~~----|
A|-3--0~~---5--3--2~~---2|
D|-3--0~~---5--3--2~~---2|
                        .

Then you repeat back to main riff! That easy! But don't forget solo...

1st guitar  
(With some slight chorus and reverb) 
e|----------------------------------------------------------  
B|--17b19-17b19-17b19-17b19-14-17b19-17b19-17b19r17p14------  
G|-----------------------------------------------------16~--  
D|----------------------------------------------------------  
A|----------------------------------------------------------  
D|----------------------------------------------------------  


e|--------------------------------------------------14-17b19r17p14--  
B|--17b19-17b19-17b19-17b19-14-17b19-17b19-17b19r17-----------------  
G|------------------------------------------------------------------  
D|------------------------------------------------------------------  
A|------------------------------------------------------------------  
D|------------------------------------------------------------------  


e|----------------------------------------------------------  
B|--17b19-17b19-17b19-17b19-14-17b19-17b19-17b19r17p14------  
G|-----------------------------------------------------16~--  
D|----------------------------------------------------------  
A|----------------------------------------------------------  
D|----------------------------------------------------------  


e|--17p14----14-------------------------------------------------------------------------|  
B|--------17----17p14-17p14----14-------------------------------------------------------|  
G|--------------------------16----16p14-16b18~-16p14----14------------------------------|  
D|---------------------------------------------------16----16p14-16p14----14------------|  
A|---------------------------------------------------------------------16----16p14-16~--|  
D|--------------------------------------------------------------------------------------|  


2nd guitar  
e|-----------------|  
B|-----------------|  
G|*---------------*|  
D|*---------------*|x16  
A|-----------------|  
D|--0---2---3---2--|  
    .   .   .   . 

And now... the best part...

DEMOLITION!!!

Instead of typing this all out, both guitars just play the main riff with the FIRST ENDING I SHOWED and then 
play this if you're rhythm guitar right after that

Rhythm
e|---------------------------------------------|
B|---------------------------------------------|
G|---------------------------------------------|
D|-------------------------------------------3~|
A|----2-----2-----2-----2-----2-----2--------3~|
D|-2--2--2--2--2--2--2--2--2--2--2--2--2--2--3~|
   .     .     .     .     .     .     .  .

Then, at the same time the vibrato on rhythm kicks in, lead guitar kicks in with:

e|-----|
B|-10b-| 

            
            
Suggest correction
Creating personal tab
Creating personal tab
You can edit any tab online and save it as your Personal.

You can edit, replace or remove any tab part or add personal notes – all changes will be seen only by you.

Personal tabs can be accessed anytime from any device, even offline.
Learn more »
Give kudos to tab author, rate the tab!
1 2 3 4 5
comments
print report bad tab
guest
You may want to rate the tab now too:
select rating
Wanna post a correction for this tab? Suggest correction