Oops, an error
Loading. Please wait.

53Rd And 3Rd Bass Tab

version 4
version 4

Whole song

Interactive

3,029 views 1 this week
no commentswrite comment
1 2 3 4 5
please rate
add to favorites
launch autoscroll
font size
0
reset
guitar tuner
Autoscroll
slow
fast
+/-
esc
set tempo
stop
Help us to improve Ultimate-Guitar.com Take our survey!
×
Author
tabbed and submitted by AngelWolf

Verse:
 (0:00)
G:--------------------------------------------]
D:-----------7-77----------7-77----------7-77-]
A:-77777-5-55----77777-5-55----77777-5-55-----]
E:--------------------------------------------]  play 2x

Chorus:
 (0:22)
G:------------------------------------------------------------------]
D:-----777755557777----777755557777----777755557777----777755557777-]
A:-5555------------5555------------5555------------5555-------------]
E:------------------------------------------------------------------]


 (0:36)
G:------------------------------------------------------------]
D:-----------7-77----------7-77----------7-77----------7-77---]
A:-77777-5-55----77777-5-55----77777-5-55----77777-5-55-------]
E:------------------------------------------------------------]  


  Chorus 2:
 (0:51)
G:------------------------------------------------------------------]
D:-----777755557777----777755557777----777755557777----777755557777-]
A:-5555------------5555------------5555------------5555-------------]
E:------------------------------------------------------------------]

Bridge:
 (1:05)
G:-------------------------------------------------------------------------]
D:-------------------------------------------------------------------------]
A:-------------------------------------------------------------------------]
E:-77777777-55555555-77777777-55555555-33333333-55555555-33333333-55555555-]

Chorus 3:
 (1:18)
G:------------------------------------------------------------------]
D:-----777755557777----777755557777----777755557777-----777755557777]
A:-7777------------7777------------7777------------7777-------------]
E:------------------------------------------------------------------]

 Verse 3:
 (1:32)                                                (1:46)
G:--------------------------------------------------------------]-quick rest-]
D:-----------7-77----------7-77----------7-77----------7--------]-quick rest-]
A:-77777-5-55----77777-5-55----77777-5-55----77777-5-55---------]-quick rest-]
E:--------------------------------------------------------------] -quick rest-]

Outro:
 (1:49)
G:--------------------------------------------------------------]
D:-----------7-77----------7-77----------7-77----------7-77-----]
A:-77777-5-55----77777-5-55----77777-5-55----77777-5-55---------]
E:--------------------------------------------------------------] 
keep playing until it eventualy fades^

DeeDee Ramone ruled. he was cool. this songs cool. and this is how i think its
played. sounds right too.
Suggest correction
Give kudos to tab author, rate the tab!
1 2 3 4 5
comments
print report bad tab
guest
You may want to rate the tab now too:
select rating
Wanna post a correction for this tab? Suggest correction