Oops, an error
Loading. Please wait.

7 And 7 Is Bass Tab

13 views 1 this week
no commentswrite comment
1 2 3 4 5
3 more votes to show rating
add to favorites
launch autoscroll
font size
0
reset
guitar tuner
Autoscroll
slow
fast
+/-
esc
set tempo
stop
Help us to improve Ultimate-Guitar.com Take our survey!
×
Author
Difficulty
novice
------------------------------------------------------------------------------
                     7 & 7 Is - The Ramones
------------------------------------------------------------------------------

Tabbed by: ChrisT

From the Album: The Chrysalis Years (2002)

Tuning: Standard

Intro
G|------------------------------------------------------|
D|------------------------------------------------------|
A|-------------------3-3-3-3---------5-5-5-5-5-5-5-5----|
E|---5-5-5-5-5-5-5-5---------3-3-3-3--------------------|

G|------------------------------------------------------|
D|------------------------------------------------------|
A|---8-8-8-8---------7-7-7-7-7-7-7-7-7-7-7-7-7-7-7-7----|
E|-----------8-8-8-8------------------------------------|

Verse
G|----------------------------------------------------------------------|
D|o--------------------------------------------------------------------o|
A|o----------5-5-5-5---------5-5-5-5-------------------------5-5-5-5---o|
E|---5-5-5-5---------5-5-5-5---------5-5-5-5-0-0-0-0-3-3-3-3------------|

G|----------------------------------------------------------------------|
D|----------------------------------------------------------------------|
A|-----------5-5-5-5---------5-5-5-5---------3-3-3-3---------5-5-5-5----|
E|---5-5-5-5---------5-5-5-5---------5-5-5-5---------3-3-3-3------------|

                                                            Oop-ip-ip....
G|-------------------------------------------------------------------------------|
D|-------------------------------------------------------------------------------|
A|-----------5-5-5-5---------5-5-5-5---------3-3-3-3-----------------------------|
E|---5-5-5-5---------5-5-5-5---------5-5-5-5---------3-3-3-3-0--3--3--0--3--3----|

     Yeah!
G|------------------------------------------------------|
D|------------------------------------------------------|
A|-------------------3-3-3-3---------5-5-5-5-5-5-5-5----|
E|---5-5-5-5-5-5-5-5---------3-3-3-3--------------------|

G|------------------------------------------------------|
D|------------------------------------------------------|
A|---8-8-8-8---------7-7-7-7-7-7-7-7-7-7-7-7-7-7-7-7----|
E|-----------8-8-8-8------------------------------------|

Verse
G|----------------------------------------------------------------------|
D|o--------------------------------------------------------------------o|
A|o----------5-5-5-5---------5-5-5-5-------------------------5-5-5-5---o|
E|---5-5-5-5---------5-5-5-5---------5-5-5-5-0-0-0-0-3-3-3-3------------|

G|----------------------------------------------------------------------|
D|----------------------------------------------------------------------|
A|-----------5-5-5-5---------5-5-5-5---------3-3-3-3---------5-5-5-5----|
E|---5-5-5-5---------5-5-5-5---------5-5-5-5---------3-3-3-3------------|

                                                             Oop-ip-ip....
G|-------------------------------------------------------------------------------|
D|-------------------------------------------------------------------------------|
A|-----------5-5-5-5---------5-5-5-5---------3-3-3-3-----------------------------|
E|---5-5-5-5---------5-5-5-5---------5-5-5-5---------3-3-3-3-0--3--3--0--3--3----|

     Yeah!
G|------------------------------------------------------|
D|------------------------------------------------------|
A|-------------------3-3-3-3---------5-5-5-5-5-5-5-5----|
E|---5-5-5-5-5-5-5-5---------3-3-3-3--------------------|

G|------------------------------------------------------|
D|------------------------------------------------------|
A|---8-8-8-8---------7-7-7-7-7-7-7-7-7-7-7-7-7-7-7-7----|
E|-----------8-8-8-8------------------------------------|

G|--------------------------------------|
D|--------------------------------------|
A|-----------5-5-5-5---------5-5-5-5----|
E|---5-5-5-5---------5-5-5-5------------|

     One             Two             Three           Four!
G|----------------------------------------------------------------------|
D|----------------------------------------------------------------------|
A|-----------5-5-5-5---------5-5-5-5---------5-5-5-5---------5-5-5-5----|
E|---5-5-5-5---------5-5-5-5---------5-5-5-5---------5-5-5-5------------|

G|----------------------------------------------------------------------|
D|o--------------------------------------------------------------------o|
A|o--7-7-7-7-7-7-7-7-8-8-8-8-8-8-8-8-----------------------------------o|
E|-----------------------------------8-8-8-8-8-8-8-8-3-3-3-3-3-3-3-3----|

G|----------------------------------------------------------------------|
D|----------------------------------------------------------------------|
A|---7-7-7-7-8-8-8-8-----------------7-7-7-7-8-8-8-8--------------------|
E|-------------------8-8-8-8-3-3-3-3-----------------8-8-8-8-3-3-3-3----|

G|-----------------------------------------------------------------------------|
D|-----------------------------------------------------------------------------|
A|---7---8-----------7---8-----------7---8-----------7---8---------------------|
E|-----------8---3-----------8---3-----------8---3-----------8---3---0~--------|

Suggest correction
Give kudos to tab author, rate the tab!
1 2 3 4 5
comments
print report bad tab
guest
You may want to rate the tab now too:
select rating
Wanna post a correction for this tab? Suggest correction