Oops, an error
Loading. Please wait.

All Screwed Up Bass Tab

19 views 1 this week
no commentswrite comment
1 2 3 4 5
3 more votes to show rating
add to favorites
launch autoscroll
font size
0
reset
guitar tuner
Autoscroll
slow
fast
+/-
esc
set tempo
stop
Help us to improve Ultimate-Guitar.com Take our survey!
×
Author
Difficulty
novice
------------------------------------------------------------------------------
                       All Screwed Up - The Ramones
------------------------------------------------------------------------------

Tabbed by: ChrisT

From the Album: The Chrysalis Years (2002)

Tuning: Standard

Intro
G|----------------------------------------------------------------------|
D|o--------------------------------------------------------------------o|
A|o--7-7-7-7-6-6-6-6-4-4-4-4-2-2-2-2-5-5-5-5-5-5-5-5-2-2-2-2-2-2-2-2---o|
E|----------------------------------------------------------------------|

G|----------------------------------------------------------------------|
D|----------------------------------------------------------------------|
A|---6h7-7-7-7-7-7-7-6h7-7-7-7-7-7-7-6h7-7-7-7-7-7-7-6h7-7-7-7-7-7-7----|
E|----------------------------------------------------------------------|

Verse                                                          
G|----------------------------------------------------------------------|
D|o---------------------------------------------------------------------|
A|o--7-7-7-7-7-7-7-7-7-7-7-7-7-7-7-7-7-7-7-7-7-7-7-7-7-7-7-7-7-7-7-7----|
E|----------------------------------------------------------------------|

                                                               Repeat x4
G|----------------------------------------------------------------------|
D|---------------------------------------------------------------------o|
A|---5-5-5-5-5-5-5-5-5-5-5-5-5-5-5-5-2-2-2-2-2-2-2-2-2-2-2-2-2-2-2-2---o|
E|----------------------------------------------------------------------|

Chorus
G|----------------------------------------------------------------------|
D|o---------------------------------------------------------------------|
A|o--7---7-7---7-7-7-7---7-7---7-7-7-5---5-5---5-5-5-5---5-5---5-5-5----|
E|----------------------------------------------------------------------|

G|----------------------------------------------------------------------|
D|---------------------------------------------------------------------o|
A|---4---4-4---4-4-4-4---4-4---4-4-4-5---5-5---5-5-5-2---2-2---2-2-2---o|
E|----------------------------------------------------------------------|

G|--------------------------------------|
D|--------------------------------------|
A|---5---5-5---5-5-5-2---2-2---2-2-2----|
E|--------------------------------------|

Verse                                                          
G|----------------------------------------------------------------------|
D|o---------------------------------------------------------------------|
A|o--7-7-7-7-7-7-7-7-7-7-7-7-7-7-7-7-7-7-7-7-7-7-7-7-7-7-7-7-7-7-7-7----|
E|----------------------------------------------------------------------|

G|----------------------------------------------------------------------|
D|---------------------------------------------------------------------o|
A|---5-5-5-5-5-5-5-5-5-5-5-5-5-5-5-5-2-2-2-2-2-2-2-2-2-2-2-2-2-2-2-2---o|
E|----------------------------------------------------------------------|

Chorus
G|----------------------------------------------------------------------|
D|o---------------------------------------------------------------------|
A|o--7---7-7---7-7-7-7---7-7---7-7-7-5---5-5---5-5-5-5---5-5---5-5-5----|
E|----------------------------------------------------------------------|

G|----------------------------------------------------------------------|
D|---------------------------------------------------------------------o|
A|---4---4-4---4-4-4-4---4-4---4-4-4-5---5-5---5-5-5-2---2-2---2-2-2---o|
E|----------------------------------------------------------------------|

Bridge
G|----------------------------------------------------------------------|
D|----------------------------------------------------------------------|
A|----------------------------------------------------------------------|
E|---5-5-5-5-5-5-5-5-5-5-5-5-5-5-5-5-2-2-2-2-2-2-2-2-2-2-2-2-2-2-2-2----|

G|----------------------------------------------------------------------|
D|----------------------------------------------------------------------|
A|----------------------------------------------------------------------|
E|---0-0-0-0-0-0-0-0-0-0-0-0-0-0-0-0-0-0-0-0-0-0-0-0-0-0-0-0-0-0-0-0----|

G|----------------------------------------------------------------------|
D|----------------------------------------------------------------------|
A|----------------------------------------------------------------------|
E|---5-5-5-5-5-5-5-5-5-5-5-5-5-5-5-5-2-2-2-2-2-2-2-2-2-2-2-2-2-2-2-2----|

G|----------------------------------------------------------------------|
D|----------------------------------------------------------------------|
A|-----------------------------------2-2-2-2-2-2-2-2-2-2-2-2-2-2-2-2----|
E|---0-0-0-0-0-0-0-0-0-0-0-0-0-0-0-0------------------------------------|

Verse                                                          
G|----------------------------------------------------------------------|
D|o---------------------------------------------------------------------|
A|o--7-7-7-7-7-7-7-7-7-7-7-7-7-7-7-7-7-7-7-7-7-7-7-7-7-7-7-7-7-7-7-7----|
E|----------------------------------------------------------------------|

G|----------------------------------------------------------------------|
D|---------------------------------------------------------------------o|
A|---5-5-5-5-5-5-5-5-5-5-5-5-5-5-5-5-2-2-2-2-2-2-2-2-2-2-2-2-2-2-2-2---o|
E|----------------------------------------------------------------------|

Chorus
G|----------------------------------------------------------------------|
D|o---------------------------------------------------------------------|
A|o--7---7-7---7-7-7-7---7-7---7-7-7-5---5-5---5-5-5-5---5-5---5-5-5----|
E|----------------------------------------------------------------------|

G|----------------------------------------------------------------------|
D|---------------------------------------------------------------------o|
A|---4---4-4---4-4-4-4---4-4---4-4-4-5---5-5---5-5-5-2---2-2---2-2-2---o|
E|----------------------------------------------------------------------|

G|--------------------------------------|-------------------------------|
D|o------------------------------------o|-------------------------------|
A|o--5---5-5---5-5-5-2---2-2---2-2-2---o|---5---5-5---5-5-5-2-----------|
E|--------------------------------------|-------------------------------|


Suggest correction
Give kudos to tab author, rate the tab!
1 2 3 4 5
comments
print report bad tab
guest
You may want to rate the tab now too:
select rating
Wanna post a correction for this tab? Suggest correction