Oops, an error
Loading. Please wait.

Anxiety Bass Tab

13 views 1 this week
no commentswrite comment
1 2 3 4 5
3 more votes to show rating
add to favorites
launch autoscroll
font size
0
reset
guitar tuner
Autoscroll
slow
fast
+/-
esc
set tempo
stop
Help us to improve Ultimate-Guitar.com Take our survey!
×
Author
Difficulty
novice
------------------------------------------------------------------------------
                     Anxiety - The Ramones
------------------------------------------------------------------------------

Tabbed by: ChrisT

From the Album: The Chrysalis Years (2002)

Tuning: Standard

Intro - No Bass

Verse (0:11)
G|------------------------------------------------------------|
D|o----------------------------------------------------------o|
A|o--3--2--2-2--3--2--2-2--2-2-2-2-2-2-2-2-2-2-2-2-2-2-2-2---o|
E|------------------------------------------------------------|

G|---------------------------------------------------------------|
D|o-------------------------------------------------------------o|
A|o-------------------------------------------------------------o|
E|---2--2-2--2-2-3--3-3--3-3--3-3-3-3-3-3-3-3-3-3-3-3-3-3-3-3----|

Chorus                                             
G|------------------------------------------------------------|
D|o----------------------------------------------------------o|
A|o--3--2--2-2--3--2--2-2--2-2-2-2-2-2-2-2-2-2-2-2-2-2-2-2---o|
E|------------------------------------------------------------|

Verse
G|------------------------------------------------------------|
D|o----------------------------------------------------------o|
A|o--3--2--2-2--3--2--2-2--2-2-2-2-2-2-2-2-2-2-2-2-2-2-2-2---o|
E|------------------------------------------------------------|

G|---------------------------------------------------------------|
D|o-------------------------------------------------------------o|
A|o-------------------------------------------------------------o|
E|---2--2-2--2-2-3--3-3--3-3--3-3-3-3-3-3-3-3-3-3-3-3-3-3-3-3----|

Chorus     
G|------------------------------------------------------------|
D|o----------------------------------------------------------o|
A|o--3--2--2-2--3--2--2-2--2-2-2-2-2-2-2-2-2-2-2-2-2-2-2-2---o|
E|------------------------------------------------------------|

Verse
G|------------------------------------------------------------|
D|o----------------------------------------------------------o|
A|o--3--2--2-2--3--2--2-2--2-2-2-2-2-2-2-2-2-2-2-2-2-2-2-2---o|
E|------------------------------------------------------------|

G|---------------------------------------------------------------|
D|---------------------------------------------------------------|
A|---------------------------------------------------------------|
E|---2--2-2--2-2-3--3-3--3-3--3-3-3-3-3-3-3-3-3-3-3-3-3-3-3-3----|

G|------------------------------|
D|------------------------------|
A|------------------------------|
E|---2--2-2--2-2-3--3-3--3-3----|

Bridge
G|-------------------------------------------------------------------|
D|-------------------------------------------------------------------|
A|------------------5--5-5-5-5-5-5-7--7-7-7-7-7-7-7-7-7-7-7-7-7-7----|
E|---7--7-7-7-7-7-7--------------------------------------------------|

                                               Repeat x4
G|------------------------------------------------------|------------|
D|o----------------------------------------------------o|------------|
A|o--8--8-8-8-8-8-8-7--7-7-7-7-7-7-7-7-7-7-7-7-7-7-----o|---8--------|
E|------------------------------------------------------|------------|

Guitar Solo
G|------------------------------------------------------------|
D|o----------------------------------------------------------o|
A|o--3--2--2-2--3--2--2-2--2-2-2-2-2-2-2-2-2-2-2-2-2-2-2-2---o|
E|------------------------------------------------------------|

G|---------------------------------------------------------------|
D|o-------------------------------------------------------------o|
A|o-------------------------------------------------------------o|
E|---2--2-2--2-2-3--3-3--3-3--3-3-3-3-3-3-3-3-3-3-3-3-3-3-3-3----|

Verse
G|------------------------------------------------------------|
D|o----------------------------------------------------------o|
A|o--3--2--2-2--3--2--2-2--2-2-2-2-2-2-2-2-2-2-2-2-2-2-2-2---o|
E|------------------------------------------------------------|

Chorus
G|---------------------------------------------------------------|
D|---------------------------------------------------------------|
A|---------------------------------------------------------------|
E|---2--2-2--2-2-3--3-3--3-3--3-3-3-3-3-3-3-3-3-3-3-3-3-3-3-3----|

G|------------------------------|
D|------------------------------|
A|------------------------------|
E|---2--2-2--2-2-3--3-3--3-3----|

G|------------------------------------------------------|
D|------------------------------------------------------|
A|---3--2--2-2--3--2--2-2--2-2--3--2--2-2--3--2--2-2----|
E|------------------------------------------------------|


Suggest correction
Give kudos to tab author, rate the tab!
1 2 3 4 5
comments
print report bad tab
guest
You may want to rate the tab now too:
select rating
Wanna post a correction for this tab? Suggest correction