Oops, an error
Loading. Please wait.

Any Way You Want It Bass Tab

version 1
version 1

Whole song

Interactive

22 views 1 this week
no commentswrite comment
1 2 3 4 5
3 more votes to show rating
add to favorites
launch autoscroll
font size
0
reset
guitar tuner
Autoscroll
slow
fast
+/-
esc
set tempo
stop
Help us to improve Ultimate-Guitar.com Take our survey!
×
Author
Difficulty
Intro
G|-----------------------------------|
D|-----------------------------------|
A|-7-7-7-7-7-7-7-7-6/7-7-7-7-7-7-7-7-|
E|-----------------------------------|


Verse ("Any Way You Want It...")
G|---------------------------------------------------------------------|
D|---------------------------------------------------------------------|
A|-7-7-7-7-7-7-7-7--4-4-4-4-4-4-4-4---7-7-7-7-7-7-7-7--4-4-4-4-4-4-4-4-|
E|---------------------------------------------------------------------|

G|------------------------------------------------------------|
D|------------------------------------------------------------|
A|-7-7-7-7-7-7-7-7--4-4-4-4-4-4-4-4--7-7-7-7-7-7-7-7--4-------|
E|------------------------------------------------------------|


First Chorus ("It's Alright, It's Alright...")
G|---------------------------------------------------------------------|
D|---------------------------------------------------------------------|
A|-7-7-7-7-7-7-7-7--4-4-4-4-4-4-4-4--7-7-7-7-7-7-7-7--4-4-4-4-4-4-4-4--|
E|---------------------------------------------------------------------|

("Any Way You Want It, That's The Way It Will Be")
G|---------------------------------------------------------------------|
D|---------------------------------------------------------------------|
A|-0-0-0-0-0-0-0-0--2-2-2-2-2-2-2-2--7-7-7-7-7-7-7-7--2-2-2-2-2-2-2-2--|
E|---------------------------------------------------------------------|


Verse ("You Don't Want Money...")
G|---------------------------------------------------------------------|
D|---------------------------------------------------------------------|
A|-7-7-7-7-7-7-7-7--4-4-4-4-4-4-4-4---7-7-7-7-7-7-7-7--4-4-4-4-4-4-4-4-|
E|---------------------------------------------------------------------|

G|------------------------------------------------------------|
D|------------------------------------------------------------|
A|-7-7-7-7-7-7-7-7--4-4-4-4-4-4-4-4--7-7-7-7-7-7-7-7--4-------|
E|------------------------------------------------------------|


Chorus ("It's Alright, It's Alright...")
G|---------------------------------------------------------------------|
D|---------------------------------------------------------------------|
A|-7-7-7-7-7-7-7-7--4-4-4-4-4-4-4-4--7-7-7-7-7-7-7-7--4-4-4-4-4-4-4-4--|
E|---------------------------------------------------------------------|

("Any Way You Want It, That's The Way It Will Be")
G|---------------------------------------------------------------------|
D|---------------------------------------------------------------------|
A|-0-0-0-0-0-0-0-0--2-2-2-2-2-2-2-2--7-7-7-7-7-7-7-7--7-7-7-7-7-7-7-7--|
E|---------------------------------------------------------------------|


Bridge ("Any Way, Any Way You Want It, That's Alright By Me...")
G|------------------------------------------------------------------|
D|------------------------------------------------------------------|
A|-0-0-0-0-0-0-0-0-0-0-0-0-0-0-0-0--7-7-7-7-7-7-7-7-7-7-7-7-7-7-7-7-|
E|------------------------------------------------------------------|

G|--------------------------------------------------------------------------------|
D|--------------------------------------------------------------------------------|
A|-0-0-0-0-0-0-0-0-0-0-0-0-0-0-0-0------------------2-2-2-2-2-2-2-2-2-2-2-2-2-2-2-|
E|----------------------------------2-2-2-2-2-2-2-2-------------------------------|


Verse ("Any Way You Want It...")
G|---------------------------------------------------------------------|
D|---------------------------------------------------------------------|
A|-7-7-7-7-7-7-7-7--4-4-4-4-4-4-4-4---7-7-7-7-7-7-7-7--4-4-4-4-4-4-4-4-|
E|---------------------------------------------------------------------|

G|------------------------------------------------------------|
D|------------------------------------------------------------|
A|-7-7-7-7-7-7-7-7--4-4-4-4-4-4-4-4--7-7-7-7-7-7-7-7--4-------|
E|------------------------------------------------------------|


Chorus ("It's Alright, It's Alright...")
G|---------------------------------------------------------------------|
D|---------------------------------------------------------------------|
A|-7-7-7-7-7-7-7-7--4-4-4-4-4-4-4-4--7-7-7-7-7-7-7-7--4-4-4-4-4-4-4-4--|
E|---------------------------------------------------------------------|

("Any Way You Want It, That's The Way It Will Be")
G|---------------------------------------------------------------------|
D|---------------------------------------------------------------------|
A|-0-0-0-0-0-0-0-0--2-2-2-2-2-2-2-2--7-7-7-7-7-7-7-7--7-7-7-7-7-7-7-7--|
E|---------------------------------------------------------------------|


Bridge ("Any Way, Any Way You Want It, That's Alright By Me...")
G|------------------------------------------------------------------|
D|------------------------------------------------------------------|
A|-0-0-0-0-0-0-0-0-0-0-0-0-0-0-0-0--7-7-7-7-7-7-7-7-7-7-7-7-7-7-7-7-|
E|------------------------------------------------------------------|

G|--------------------------------------------------------------------------------|
D|--------------------------------------------------------------------------------|
A|-0-0-0-0-0-0-0-0-0-0-0-0-0-0-0-0------------------2-2-2-2-2-2-2-2-2-2-2-2-2-2-2-|
E|----------------------------------2-2-2-2-2-2-2-2-------------------------------|


Verse ("Any Way You Want It...")
G|---------------------------------------------------------------------|
D|---------------------------------------------------------------------|
A|-7-7-7-7-7-7-7-7--4-4-4-4-4-4-4-4---7-7-7-7-7-7-7-7--4-4-4-4-4-4-4-4-|
E|---------------------------------------------------------------------|

G|------------------------------------------------------------|
D|------------------------------------------------------------|
A|-7-7-7-7-7-7-7-7--4-4-4-4-4-4-4-4--7-7-7-7-7-7-7-7--4-------|
E|------------------------------------------------------------|


Final Chorus/Outro ("It's Alright, It's Alright...")
G|---------------------------------------------------------------------|
D|---------------------------------------------------------------------|
A|-7-7-7-7-7-7-7-7--4-4-4-4-4-4-4-4--7-7-7-7-7-7-7-7--4-4-4-4-4-4-4-4--|
E|---------------------------------------------------------------------|

("Any Way You Want It, That's The Way It Will Be")
G|---------------------------------------------------------------------|
D|---------------------------------------------------------------------|
A|-0-0-0-0-0-0-0-0--2-2-2-2-2-2-2-2--7-7-7-7-7-7-7-7--0-0-0-0--2-2-2-2-|
E|---------------------------------------------------------------------|

("That's The Way It Will Be...")
G|---------------------------------------------------------------------------------|
D|---------------------------------------------------------------------------------|
A|-7-7-7-7-7-7-7-7--0-0-0-0--2-2-2-2--7-7-7-7-7-7-7-7--0-0-0-0--2-2-2-2---7--------|
E|---------------------------------------------------------------------------------|
Suggest correction
Give kudos to tab author, rate the tab!
1 2 3 4 5
comments
print report bad tab
guest
You may want to rate the tab now too:
select rating
Wanna post a correction for this tab? Suggest correction