Oops, an error
Loading. Please wait.

Any Way You Want It Tab

version 1
version 1

Whole song

Interactive

10 views 1 this week
no commentswrite comment
1 2 3 4 5
3 more votes to show rating
add to favorites
launch autoscroll
font size
0
reset
how to read this tab
guitar tuner
Autoscroll
slow
fast
+/-
esc
set tempo
stop
Help us to improve Ultimate-Guitar.com Take our survey!
×
Author
Difficulty
Intro
E|-----------------------------------|
B|-----------------------------------|
G|-9-9-9-9-9-9-9-9-8/9-9-9-9-9-9-9-9-|
D|-9-9-9-9-9-9-9-9-8/9-9-9-9-9-9-9-9-|
A|-7-7-7-7-7-7-7-7-6/7-7-7-7-7-7-7-7-|
E|-----------------------------------|


Verse ("Any Way You Want It...")
E|---------------------------------------------------------------------|
B|---------------------------------------------------------------------|
G|-9-9-9-9-9-9-9-9--6-6-6-6-6-6-6-6---9-9-9-9-9-9-9-9--6-6-6-6-6-6-6-6-|
D|-9-9-9-9-9-9-9-9--6-6-6-6-6-6-6-6---9-9-9-9-9-9-9-9--6-6-6-6-6-6-6-6-|
A|-7-7-7-7-7-7-7-7--4-4-4-4-4-4-4-4---7-7-7-7-7-7-7-7--4-4-4-4-4-4-4-4-|
E|---------------------------------------------------------------------|

E|------------------------------------------------------------|
B|------------------------------------------------------------|
G|-9-9-9-9-9-9-9-9--6-6-6-6-6-6-6-6--9-9-9-9-9-9-9-9--6-------|
D|-9-9-9-9-9-9-9-9--6-6-6-6-6-6-6-6--9-9-9-9-9-9-9-9--6-------|
A|-7-7-7-7-7-7-7-7--4-4-4-4-4-4-4-4--7-7-7-7-7-7-7-7--4-------|
E|------------------------------------------------------------|


First Chorus ("It's Alright, It's Alright...")
E|---------------------------------------------------------------------|
B|---------------------------------------------------------------------|
G|-9-9-9-9-9-9-9-9--6-6-6-6-6-6-6-6--9-9-9-9-9-9-9-9--6-6-6-6-6-6-6-6--|
D|-9-9-9-9-9-9-9-9--6-6-6-6-6-6-6-6--9-9-9-9-9-9-9-9--6-6-6-6-6-6-6-6--|
A|-7-7-7-7-7-7-7-7--4-4-4-4-4-4-4-4--7-7-7-7-7-7-7-7--4-4-4-4-4-4-4-4--|
E|---------------------------------------------------------------------|

("Any Way You Want It, That's The Way It Will Be")
E|---------------------------------------------------------------------|
B|---------------------------------------------------------------------|
G|-2-2-2-2-2-2-2-2--4-4-4-4-4-4-4-4--9-9-9-9-9-9-9-9--4-4-4-4-4-4-4-4--|
D|-2-2-2-2-2-2-2-2--4-4-4-4-4-4-4-4--9-9-9-9-9-9-9-9--4-4-4-4-4-4-4-4--|
A|-0-0-0-0-0-0-0-0--2-2-2-2-2-2-2-2--7-7-7-7-7-7-7-7--2-2-2-2-2-2-2-2--|
E|---------------------------------------------------------------------|


Verse ("You Don't Want Money...")
E|---------------------------------------------------------------------|
B|---------------------------------------------------------------------|
G|-9-9-9-9-9-9-9-9--6-6-6-6-6-6-6-6---9-9-9-9-9-9-9-9--6-6-6-6-6-6-6-6-|
D|-9-9-9-9-9-9-9-9--6-6-6-6-6-6-6-6---9-9-9-9-9-9-9-9--6-6-6-6-6-6-6-6-|
A|-7-7-7-7-7-7-7-7--4-4-4-4-4-4-4-4---7-7-7-7-7-7-7-7--4-4-4-4-4-4-4-4-|
E|---------------------------------------------------------------------|

E|------------------------------------------------------------|
B|------------------------------------------------------------|
G|-9-9-9-9-9-9-9-9--6-6-6-6-6-6-6-6--9-9-9-9-9-9-9-9--6-------|
D|-9-9-9-9-9-9-9-9--6-6-6-6-6-6-6-6--9-9-9-9-9-9-9-9--6-------|
A|-7-7-7-7-7-7-7-7--4-4-4-4-4-4-4-4--7-7-7-7-7-7-7-7--4-------|
E|------------------------------------------------------------|


Chorus ("It's Alright, It's Alright...")
E|---------------------------------------------------------------------|
B|---------------------------------------------------------------------|
G|-9-9-9-9-9-9-9-9--6-6-6-6-6-6-6-6--9-9-9-9-9-9-9-9--6-6-6-6-6-6-6-6--|
D|-9-9-9-9-9-9-9-9--6-6-6-6-6-6-6-6--9-9-9-9-9-9-9-9--6-6-6-6-6-6-6-6--|
A|-7-7-7-7-7-7-7-7--4-4-4-4-4-4-4-4--7-7-7-7-7-7-7-7--4-4-4-4-4-4-4-4--|
E|---------------------------------------------------------------------|

("Any Way You Want It, That's The Way It Will Be")
E|---------------------------------------------------------------------|
B|---------------------------------------------------------------------|
G|-2-2-2-2-2-2-2-2--4-4-4-4-4-4-4-4--9-9-9-9-9-9-9-9--9-9-9-9-9-9-9-9--|
D|-2-2-2-2-2-2-2-2--4-4-4-4-4-4-4-4--9-9-9-9-9-9-9-9--9-9-9-9-9-9-9-9--|
A|-0-0-0-0-0-0-0-0--2-2-2-2-2-2-2-2--7-7-7-7-7-7-7-7--7-7-7-7-7-7-7-7--|
E|---------------------------------------------------------------------|


Bridge ("Any Way, Any Way You Want It, That's Alright By Me...")
E|------------------------------------------------------------------|
B|------------------------------------------------------------------|
G|-2-2-2-2-2-2-2-2-2-2-2-2-2-2-2-2--9-9-9-9-9-9-9-9-9-9-9-9-9-9-9-9-|
D|-2-2-2-2-2-2-2-2-2-2-2-2-2-2-2-2--9-9-9-9-9-9-9-9-9-9-9-9-9-9-9-9-|
A|-0-0-0-0-0-0-0-0-0-0-0-0-0-0-0-0--7-7-7-7-7-7-7-7-7-7-7-7-7-7-7-7-|
E|------------------------------------------------------------------|

E|---------------------------------------------------------------------------------|
B|---------------------------------------------------------------------------------|
G|-2-2-2-2-2-2-2-2-2-2-2-2-2-2-2-2-------------------4-4-4-4-4-4-4-4-4-4-4-4-4-4-4-|
D|-2-2-2-2-2-2-2-2-2-2-2-2-2-2-2-2--4-4-4-4-4-4-4-4--4-4-4-4-4-4-4-4-4-4-4-4-4-4-4-|
A|-0-0-0-0-0-0-0-0-0-0-0-0-0-0-0-0--4-4-4-4-4-4-4-4--2-2-2-2-2-2-2-2-2-2-2-2-2-2-2-|
E|----------------------------------2-2-2-2-2-2-2-2--------------------------------|


Verse ("Any Way You Want It...")
E|---------------------------------------------------------------------|
B|---------------------------------------------------------------------|
G|-9-9-9-9-9-9-9-9--6-6-6-6-6-6-6-6---9-9-9-9-9-9-9-9--6-6-6-6-6-6-6-6-|
D|-9-9-9-9-9-9-9-9--6-6-6-6-6-6-6-6---9-9-9-9-9-9-9-9--6-6-6-6-6-6-6-6-|
A|-7-7-7-7-7-7-7-7--4-4-4-4-4-4-4-4---7-7-7-7-7-7-7-7--4-4-4-4-4-4-4-4-|
E|---------------------------------------------------------------------|

E|------------------------------------------------------------|
B|------------------------------------------------------------|
G|-9-9-9-9-9-9-9-9--6-6-6-6-6-6-6-6--9-9-9-9-9-9-9-9--6-------|
D|-9-9-9-9-9-9-9-9--6-6-6-6-6-6-6-6--9-9-9-9-9-9-9-9--6-------|
A|-7-7-7-7-7-7-7-7--4-4-4-4-4-4-4-4--7-7-7-7-7-7-7-7--4-------|
E|------------------------------------------------------------|


Chorus ("It's Alright, It's Alright...")
E|---------------------------------------------------------------------|
B|---------------------------------------------------------------------|
G|-9-9-9-9-9-9-9-9--6-6-6-6-6-6-6-6--9-9-9-9-9-9-9-9--6-6-6-6-6-6-6-6--|
D|-9-9-9-9-9-9-9-9--6-6-6-6-6-6-6-6--9-9-9-9-9-9-9-9--6-6-6-6-6-6-6-6--|
A|-7-7-7-7-7-7-7-7--4-4-4-4-4-4-4-4--7-7-7-7-7-7-7-7--4-4-4-4-4-4-4-4--|
E|---------------------------------------------------------------------|

("Any Way You Want It, That's The Way It Will Be")
E|---------------------------------------------------------------------|
B|---------------------------------------------------------------------|
G|-2-2-2-2-2-2-2-2--4-4-4-4-4-4-4-4--9-9-9-9-9-9-9-9--9-9-9-9-9-9-9-9--|
D|-2-2-2-2-2-2-2-2--4-4-4-4-4-4-4-4--9-9-9-9-9-9-9-9--9-9-9-9-9-9-9-9--|
A|-0-0-0-0-0-0-0-0--2-2-2-2-2-2-2-2--7-7-7-7-7-7-7-7--7-7-7-7-7-7-7-7--|
E|---------------------------------------------------------------------|


Bridge ("Any Way, Any Way You Want It, That's Alright By Me...")
E|------------------------------------------------------------------|
B|------------------------------------------------------------------|
G|-2-2-2-2-2-2-2-2-2-2-2-2-2-2-2-2--9-9-9-9-9-9-9-9-9-9-9-9-9-9-9-9-|
D|-2-2-2-2-2-2-2-2-2-2-2-2-2-2-2-2--9-9-9-9-9-9-9-9-9-9-9-9-9-9-9-9-|
A|-0-0-0-0-0-0-0-0-0-0-0-0-0-0-0-0--7-7-7-7-7-7-7-7-7-7-7-7-7-7-7-7-|
E|------------------------------------------------------------------|

E|---------------------------------------------------------------------------------|
B|---------------------------------------------------------------------------------|
G|-2-2-2-2-2-2-2-2-2-2-2-2-2-2-2-2-------------------4-4-4-4-4-4-4-4-4-4-4-4-4-4-4-|
D|-2-2-2-2-2-2-2-2-2-2-2-2-2-2-2-2--4-4-4-4-4-4-4-4--4-4-4-4-4-4-4-4-4-4-4-4-4-4-4-|
A|-0-0-0-0-0-0-0-0-0-0-0-0-0-0-0-0--4-4-4-4-4-4-4-4--2-2-2-2-2-2-2-2-2-2-2-2-2-2-2-|
E|----------------------------------2-2-2-2-2-2-2-2--------------------------------|


Verse ("Any Way You Want It...")
E|---------------------------------------------------------------------|
B|---------------------------------------------------------------------|
G|-9-9-9-9-9-9-9-9--6-6-6-6-6-6-6-6---9-9-9-9-9-9-9-9--6-6-6-6-6-6-6-6-|
D|-9-9-9-9-9-9-9-9--6-6-6-6-6-6-6-6---9-9-9-9-9-9-9-9--6-6-6-6-6-6-6-6-|
A|-7-7-7-7-7-7-7-7--4-4-4-4-4-4-4-4---7-7-7-7-7-7-7-7--4-4-4-4-4-4-4-4-|
E|---------------------------------------------------------------------|

E|------------------------------------------------------------|
B|------------------------------------------------------------|
G|-9-9-9-9-9-9-9-9--6-6-6-6-6-6-6-6--9-9-9-9-9-9-9-9--6-------|
D|-9-9-9-9-9-9-9-9--6-6-6-6-6-6-6-6--9-9-9-9-9-9-9-9--6-------|
A|-7-7-7-7-7-7-7-7--4-4-4-4-4-4-4-4--7-7-7-7-7-7-7-7--4-------|
E|------------------------------------------------------------|

Final Chorus/Outro ("It's Alright, It's Alright...")
E|---------------------------------------------------------------------|
B|---------------------------------------------------------------------|
G|-9-9-9-9-9-9-9-9--6-6-6-6-6-6-6-6---9-9-9-9-9-9-9-9--6-6-6-6-6-6-6-6-|
D|-9-9-9-9-9-9-9-9--6-6-6-6-6-6-6-6---9-9-9-9-9-9-9-9--6-6-6-6-6-6-6-6-|
A|-7-7-7-7-7-7-7-7--4-4-4-4-4-4-4-4---7-7-7-7-7-7-7-7--4-4-4-4-4-4-4-4-|
E|---------------------------------------------------------------------|

("Any Way You Want It, That's The Way It Will Be")
E|---------------------------------------------------------------------|
B|---------------------------------------------------------------------|
G|-2-2-2-2-2-2-2-2--4-4-4-4-4-4-4-4--9-9-9-9-9-9-9-9--2-2-2-2--4-4-4-4-|
D|-2-2-2-2-2-2-2-2--4-4-4-4-4-4-4-4--9-9-9-9-9-9-9-9--2-2-2-2--4-4-4-4-|
A|-0-0-0-0-0-0-0-0--2-2-2-2-2-2-2-2--7-7-7-7-7-7-7-7--0-0-0-0--2-2-2-2-|
E|---------------------------------------------------------------------|

("That's The Way It Will Be...")
E|---------------------------------------------------------------------------------|
B|---------------------------------------------------------------------------------|
G|-9-9-9-9-9-9-9-9--2-2-2-2--4-4-4-4--9-9-9-9-9-9-9-9--2-2-2-2--4-4-4-4---9--------|
D|-9-9-9-9-9-9-9-9--2-2-2-2--4-4-4-4--9-9-9-9-9-9-9-9--2-2-2-2--4-4-4-4---9--------|
A|-7-7-7-7-7-7-7-7--0-0-0-0--2-2-2-2--7-7-7-7-7-7-7-7--0-0-0-0--2-2-2-2---7--------|
E|---------------------------------------------------------------------------------|
Suggest correction
Give kudos to tab author, rate the tab!
1 2 3 4 5
comments
print report bad tab
guest
You may want to rate the tab now too:
select rating
Wanna post a correction for this tab? Suggest correction