Oops, an error
Loading. Please wait.

Bad Brain Bass Tab

version 1
version 1

Whole song

Interactive

1,143 views 12 this week
1 commentread comment
1 2 3 4 5
2 more votes to show rating
add to favorites
launch autoscroll
font size
0
reset
guitar tuner
×
Best way to learn
"Bad Brain"
Autoscroll
slow
fast
+/-
esc
set tempo
stop
This is a very easy song to play all you need to do is memorize and get the timing. If 
are any errors I made email me at purple_llama@comcast.net

Riff
e -------5-5-5--------5----------------------------------|
a 7-7-7-------5-5-5-5------------------------------------|
d -------------------------------------------------------|
g -------------------------------------------------------|

Verse
e 5-5-5-----7-7-7----------------------------------------|
a ------7-7-7-----7-5------------------------------------|
d -------------------------------------------------------|
g -------------------------------------------------------|

Bridge
e --------------2-2-2-2-2--------------------------------|
a 5-5-5-2-2-2--------------------------------------------|
d -------------------------------------------------------|
g -------------------------------------------------------|

Riff X4
Verse X4
Bridge X4
Verse X6
Bridge X2
Verse X4
Riff X4
Bridge X2
Verse X6
Bridge X2
Verse X4
Pause
Bridge until the end of the song
Suggest correction
Give kudos to tab author, rate the tab!
1 2 3 4 5
comments
print report bad tab
1 comment total.
0 reply
Purple_Llama 30 Aug 17, 2007 01:54 AM

I made a mistake this is the first part
e -------5-5-5--------5----------------------------------|
a 7-7-7-------5-5-5-5------------------------------------|
d -------------------------------------------------------|
g -------------------------------------------------------|

guest
You may want to rate the tab now too:
select rating
Wanna post a correction for this tab? Suggest correction