Oops, an error
Loading. Please wait.
We have an official Bad Brain tab made by UG professional guitarists. Check out the tab »
×
by Ramones
119 views 1 this week
no commentswrite comment
1 2 3 4 5
3 more votes to show rating
add to favorites
×
Save as Personal and add changes to this tab that will be seen only by you. Learn more ›
×
You can save this tab as Personal to edit and correct it or add notes. All changes will be seen only by you. Learn more »
launch autoscroll
font size
0
reset
guitar tuner
backing track
0:00
0:00
edit
Autoscroll
slow
fast
+/-
esc
set tempo
stop
Author
Difficulty
SONG: Bad Brain
ARTIST: The Ramones
TRANSCRIBED BY: EVILxHEMI
Email: evilxhemi@gmail.com

GABBA GABBA HEY!!!
This is my rendition of Bad Brain. It's a little more melodic and follows the chord changes of the
guitar/vocals. It's still in the record key, tho. I swing the bass a little more, personally. It's how I play
it with my band. The link to the YT video is at the bottom of the page. I used that version to transcribe
this song. I hope you enjoy it! Have a nice day! :)

4/4 (Intro)
                        
G|--------|--------|--------|--------|--------|--------|--------|--------|
D|--------|--------|--------|--------|--------|--------|--------|--------|
A|7-------|5---7-5-|7-------|5---7-5-|7-------|5---7-5-|7-------|5---7-5-|
E|----5---|--------|----5---|--------|----5---|--------|----5---|--------|


G|--------|--------|--------|--------|--------|--------|--------|--------|
D|--------|--------|--------|--------|--------|--------|--------|--------|
A|----7---|--7-7-5-|----7---|--7-7-5-|----7---|--7-7-5-|----7---|--7-7-5-|
E|5-------|7-------|5-------|7-------|5-------|7-------|5-------|7-------|

                                     |(Verse 1) :24         
G|--------|--------|--------|--------|--------|--------|--------|--------|
D|--------|--------|--------|--------|--------|--------|--------|--------|
A|5-------|9-9-9-9-|5-------|9-9-9-9-|7---7---|----7-5-|7---7---|----7-5-|
E|----7---|--------|----7---|--------|--------|7-------|--------|7-------|

                                     |(Chorus)         
G|--------|--------|--------|--------|--------|--------|--------|--------|
D|--------|--------|--------|--------|--------|--------|--------|--------|
A|7---7---|----7-5-|7---7---|----7-5-|7---7---|----7-5-|7---7---|----7-5-|
E|--------|7-------|--------|7-------|--------|7-------|--------|7-------|

 (Bridge)                            |(Verse 2) :42
G|--------|--------|--------|--------|--------|--------|--------|--------|
D|--------|--------|--------|--------|--------|--------|--------|--------|
A|5-------|9-9-9-9-|5-------|9-9-9-9-|7---7---|----7-5-|7---7---|----7-5-|
E|----7---|--------|----7---|--------|--------|7-------|--------|7-------|

                   |Chorus)
G|--------|--------|--------|--------|--------|--------|--------|--------|
D|--------|--------|--------|--------|--------|--------|--------|--------|
A|7---7---|----7-5-|7---7---|----7-5-|7-------|5---7-5-|7-------|5---7-5-|
E|--------|7-------|--------|7-------|----5---|--------|----5---|--------|

                               
G|--------|--------|--------|--------|--------|--------|--------|--------|
D|--------|--------|--------|--------|--------|--------|--------|--------|
A|7-------|5---7-5-|7-------|5---7-5-|5-------|9-9-9-9-|5-------|9-9-9-9-|
E|----5---|--------|----5---|--------|----7---|--------|----7---|--------|

(Verse 3) 1:08
G|--------|--------|--------|--------|--------|--------|--------|--------|
D|--------|--------|--------|--------|--------|--------|--------|--------|
A|7---7---|----7-5-|7---7---|----7-5-|7---7---|----7-5-|7---7---|----7-5-|
E|--------|7-------|--------|7-------|--------|7-------|--------|7-------|

(Chorus)                             |1:20 (Bridge)
G|--------|--------|--------|--------|--------|--------|--------|--------|
D|--------|--------|--------|--------|--------|--------|--------|--------|
A|7---7---|----7-5-|7---7---|----7-5-|5-------|9-9-9-9-|5-------|9-9-9-9-|
E|--------|7-------|--------|7-------|----7---|--------|----7---|--------|

(Verse 4) 1:25
G|--------|--------|--------|--------|--------|--------|--------|--------|
D|--------|--------|--------|--------|--------|--------|--------|--------|
A|7---7---|----7-5-|7---7---|----7-5-|7---7---|----7-5-|7---7---|----7-5-|
E|--------|7-------|--------|7-------|--------|7-------|--------|7-------|

(Drum Solo/Vocals) - 1:34 to 1:55 9 measures

1:55 (Outro)
G|--------|--------|--------|--------|--------|--------|--------|--------|
D|--------|--------|--------|--------|--------|--------|--------|--------|
A|5-------|9-9-9-9-|5-------|9-9-9-9-|5-------|9-9-9-9-|5-------|9-9-9-9-|
E|----7---|--------|----7---|--------|----7---|--------|----7---|--------|

G|--------|--------|--------|--------|--------|--------|--------|--------|
D|--------|--------|--------|--------|--------|--------|--------|--------|
A|5-------|9-9-9-9-|5-------|9-9-9-9-|5-------|9-9-9-9-|5-------|9-9-9-9-|
E|----7---|--------|----7---|--------|----7---|--------|----7---|--------|

G|--------|--------|--------|--------|--------|--------|--------|--------|
D|--------|--------|--------|--------|--------|--------|--------|--------|
A|5-------|9-9-9-9-|5-------|9-------|--------|--------|--------|--------|
E|----7---|--------|----7---|--------|--------|--------|--------|--------|

https://www.youtube.com/watch?v=noqXKruQmYw

            
            
Suggest correction
Creating personal tab
Creating personal tab
You can edit any tab online and save it as your Personal.

You can edit, replace or remove any tab part or add personal notes – all changes will be seen only by you.

Personal tabs can be accessed anytime from any device, even offline.
Learn more »
Give kudos to tab author, rate the tab!
1 2 3 4 5
comments
print report bad tab
guest
You may want to rate the tab now too:
select rating
Wanna post a correction for this tab? Suggest correction