Oops, an error
Loading. Please wait.

Beat On The Brat Bass Tab

version 4
version 4

Whole song

Interactive

1,151 views 3 this week
no commentswrite comment
1 2 3 4 5
2 more votes to show rating
add to favorites
launch autoscroll
font size
0
reset
guitar tuner
Autoscroll
slow
fast
+/-
esc
set tempo
stop
Help us to improve Ultimate-Guitar.com Take our survey!
×
Author
Difficulty
novice
Intro
G|-----------------------------------------|
D|-9-9-9-9-9-9---9-9-9-9-9-9---9-9--9-9----|
A|-------------7-------------7----7-----7--|
E|-----------------------------------------|

"Beat on the brat , Beat on the brat..."
G|------------------------------------------|
D|-9-9-9-9-9-9-9-9-9-9-9-9-9-9-9-9-9-9-9-9--|
A|------------------------------------------|
E|------------------------------------------|

"oh yeah, oh yeah"
G|-----------------------------|
D|-----------------------------|
A|-7-7-7-7-7-7-7-9-9-9-9-9-9-9-|
E|-----------------------------|

"oh oh"
G|------------------------------------------|
D|-9-9-9-9-9-9-9-9-9-9-9-9-9-9-9-9-9-9-9-9--|
A|------------------------------------------|
E|------------------------------------------|

G|--------------------------------|
D|-7-7-7-7-7-7-7------------------|
A|---------------9-9-9-9-9-9-9----|
E|--------------------------------|

G|--------------------------------|
D|-7-7-7-7-7-7-7------------------|
A|---------------9-9-9-9-9-9-9----|
E|--------------------------------|

"What can you do?"
G|--------------------------------|
D|-9-9-9-9-9-9-9------------------|
A|---------------7-7-7-7-7-7-7----|
E|--------------------------------|

G|--------------------------------|
D|-9-9-9-9-9-9-9------------------|
A|---------------7-7-7-7-7-7-7----|
E|--------------------------------|

G|--------------------------------|
D|-9-9-9-9-9-9-9-9-9-9-9-9-9-9----|
A|--------------------------------|
E|--------------------------------|

G|--------------------------------|
D|-7-7-7-7-7-7-7------------------|
A|---------------9-9-9-9-9-9-9----|
E|--------------------------------|

G|--------------------------------|
D|-7-7-7-7-7-7-7------------------|
A|---------------9-9-9-9-9-9-9----|
E|--------------------------------|

Outro
G|----------------------------------------------------|
D|-9-9-9-9-9-9---9-9-9-9-9-9---9-9--9-9--9-9--9-9---9-|
A|-------------7-------------7----7----7----7-----7---|
E|----------------------------------------------------|



•mxggot•
Suggest correction
Give kudos to tab author, rate the tab!
1 2 3 4 5
comments
print report bad tab
guest
You may want to rate the tab now too:
select rating
Wanna post a correction for this tab? Suggest correction